Green Day - Last Of The American Girls Chords & Tabs

 

Last Of The American Girls Chords & Tabs

Green Day Chords & Tabs

Version: 2 Type: Bass Tab 0 ratings
1 star 2 stars 3 stars 4 stars 5 stars
comments

Last Of The American Girls Bass Tab

   
-------------------------------------------------------------------------------
		      Last of the American Girls-Green Day
-------------------------------------------------------------------------------

Tabbed By:Stjimmy34 
Tuning:Standard

Intro
G|---------------------------------------------------------------------------|
D|---------------------------------------------------------------------------|
A|-2(x16)--------------------------------------------------------------------|
E|---------------------------------------------------------------------------|

Verse
G|---------------------------------------------------------------------------|
D|---------------------------------------------------------------------------|
A|-2(x16)--/7(x16)--2(x16)--/9(x16)--2(x16)--/7(x16)--2(x8)--/9(x8)--2(x15)--|
E|---------------------------------------------------------------------------|

Verse 2
G|-----------------------------------------------------------------------------|
D|-----------------------------------------------------------------------------|
A|-2(x16)--/7(x16)--2(x16)--/9(x16)--2(x16)--/7(x16)--2(x16)--/9(x9)--77-66-44-|
E|-----------------------------------------------------------------------------|
[ Tab from: http://www.guitartabs.cc/tabs/g/green_day/last_of_the_american_girls_btab_ver_2.html ]
Chorus
G|---------------------------------------------------------------------------|
D|---------------------------------------------------------------------------|
A|-14(x16)--7(x16)--14(x8)--9-9-9--------------------------------------------|
E|---------------------------------------------------------------------------|

Pre-verse
G|---------------------------------------------------------------------------|
D|--------222-1--------------------------------------------------------------|
A|-222-4---------(x4)--------------------------------------------------------|
E|---------------------------------------------------------------------------|

Verse 2

Pre-verse

Guitar solo x2
G|---------------------------------------------------------------------------|
D|---------------------------------------------------------------------------|
A|-2(x16)--/7(x16)--2(x16)--/9(x9)-77-66-44----------------------------------|
E|---------------------------------------------------------------------------|

Chorus
G|---------------------------------------------------------------------------|
D|---------------------------------------------------------------------------|
A|-14(x16)--7(x16)--14(x16)--9(x16)--14(x16)--7(x16)--14(x8)--9-9-9----------|
E|---------------------------------------------------------------------------|

Pre-verse x8

End on B

| /  slide up
| \  slide down
| h  hammer-on
| p  pull-off
| ~  vibrato
| +  harmonic
| x  Mute note
===============================================================================
Comments