Green Day - Last Night On Earth Chords & Tabs

 

Last Night On Earth Chords & Tabs

Green Day Chords & Tabs

Version: 3 Type: Tab 0 ratings
1 star 2 stars 3 stars 4 stars 5 stars
comments

Last Night On Earth Tab

Intro:
e---0-----------0--------0--------0----------5---------5-----0------0---|
B-2----2-2----2---2----2---2----2---2---7------7--6-----7--2----2-2---2-|
G-2-----2----2-2--------2-----0--0------7--7------7--7-----2----2-2-----|
D-2---------3--------4--------2---------7---7-----7---7----2----2-2-----|
A---------------------------------------5---------5--------0----0-0-----|
E-----------------------------------------------------------------------|

Melody:
e-----0--------0----------0-------0----------2--------1------0------0---|
B-----2--------2----------2-------2------3-3---3--3-3---3--2----2-2--2--|
G---2-2--2---2-2--2-----2-2--2--0-0--0---2--2-----2--2-----2----2-2-----|x2
D---2---2---3----3---4------4---2---2----0--------0--------2----2-2-----|
A-----------------------------------------------------------------------|
E-----------------------------------------------------------------------|

Chorus:
e---2-2-----1-1-------0--------0------2-2-----1-1-------0--------0---|
B---3-3--3--3-3--3--2-2--2-2-2---2----3-3--3--3-3--3--2-2--2-2-2---2-|
G---2-2-2---2-2-2---2---2--2-2--------2-2-2---2-2-2---2---2--2-2-----|
D---0-0-----0-0-----0------0-0--------0-0-----0-0-----0------0-0-----|
A--------------------------------------------------------------------|
E--------------------------------------------------------------------|

e---2-2-----1-1-------------------------2--1----|
B---3-3--3--3-3--3--2-2--2-2--2-2--2-2--3--3----|
G---2-2-2---2-2-2---2-2--0-0--2-2--0-0--2--2----|
D---0-0-----0-0-----2-2--2-2--4-4--2-2--0--0----|
A-------------------0-0--0-0--0-0--0-0----------|
E-----------------------------------------------|

Lead Guitar w/ tap delay
e------------------------------------|
B------------------------------------|
G---9--10--11--12----11--10--7--7-6--|
D------------------------------------|
A------------------------------------|
E------------------------------------|

Intro: play with lead guitar
e---0-----------0--------0--------0----------5---------5-----0------0---|
B-2----2-2----2---2----2---2----2---2---7------7--6-----7--2----2-2---2-|
G-2-----2----2-2--------2-----0--0------7--7------7--7-----2----2-2-----|
D-2---------3--------4--------2---------7---7-----7---7----2----2-2-----|
A---------------------------------------5---------5--------0----0-0-----|
E-----------------------------------------------------------------------|


Melody 2nd verse:
e-----0--------0----------0-------0----------2--------1------0------0---|
B-----2--------2----------2-------2------3-3---3--3-3---3--2----2-2--2--|
G---2-2--2---2-2--2-----2-2--2--0-0--0---2--2-----2--2-----2----2-2-----|x2
D---2---2---3----3---4------4---2---2----0--------0--------2----2-2-----|
A-----------------------------------------------------------------------|
E-----------------------------------------------------------------------|

Lead guitar: play with melody
e------------------------------0--------2-------1-----------------------|
B------2-------2-------2---------2----3---3---2---2-----2-------2h3p2---|
G----2---2---2---2---2---2---0------2-------2---------2---2---2---------|
D--2-------3-------4-------2------------------------2-------2-----------|x2
A-----------------------------------------------------------------------|
E-----------------------------------------------------------------------|

Play with chorus:
e-----2-------1-----------------------|
B---3---3---2---2-----2-------2h3p2---|
G-2-------2---------2---2---2---------|
D-----------------2-------2-----------|x2
A-------------------------------------|
E-------------------------------------|
[ Tab from: http://www.guitartabs.cc/tabs/g/green_day/last_night_on_earth_tab_ver_3.html ]
Chorus 2nd verse:
e---2-2-----1-1-------0--------0------2-2-----1-1-------0--------0---|
B---3-3--3--3-3--3--2-2--2-2-2---2----3-3--3--3-3--3--2-2--2-2-2---2-|
G---2-2-2---2-2-2---2---2--2-2--------2-2-2---2-2-2---2---2--2-2-----|
D---0-0-----0-0-----0------0-0--------0-0-----0-0-----0------0-0-----|
A--------------------------------------------------------------------|
E--------------------------------------------------------------------|

e---2-2-----1-1-------------------------2--1--------|
B---3-3--3--3-3--3--2-2--2-2--2-2--2-2--3--3--------|
G---2-2-2---2-2-2---2-2--0-0--2-2--0-0--2--2--------|
D---0-0-----0-0-----2-2--2-2--4-4--2-2--0--0--------|
A-------------------0-0--0-0--0-0--0-0--------------|
E---------------------------------------------------|

Lead guitar solo:
e---------------------------------------------------------------|
B---------------------------------------------------------------|
G---2/9---9/10--10/11--11/12-----14/11--14/10--14/9-------------|
D---------------------------------------------------------------|
A---------------------------------------------------------------|
E---------------------------------------------------------------|

Play with lead solo:
e------------------------------0--------2-------1-----------------------|
B------2-------2-------2---------2----3---3---2---2-----2-------2h3p2---|
G----2---2---2---2---2---2---0------2-------2---------2---2---2---------|
D--2-------3-------4-------2------------------------2-------2-----------|x2
A-----------------------------------------------------------------------|
E-----------------------------------------------------------------------|

3rd Chorus:
e---2-2-----1-1-------0--------0------2-2-----1-1-------0--------0---|
B---3-3--3--3-3--3--2-2--2-2-2---2----3-3--3--3-3--3--2-2--2-2-2---2-|
G---2-2-2---2-2-2---2---2--2-2--------2-2-2---2-2-2---2---2--2-2-----|
D---0-0-----0-0-----0------0-0--------0-0-----0-0-----0------0-0-----|
A--------------------------------------------------------------------|
E--------------------------------------------------------------------|

e---2-2-----1-1-------------------------2--1--------|
B---3-3--3--3-3--3--2-2--2-2--2-2--2-2--3--3--------|
G---2-2-2---2-2-2---2-2--0-0--2-2--0-0--2--2--------|
D---0-0-----0-0-----2-2--2-2--4-4--2-2--0--0--------|
A-------------------0-0--0-0--0-0--0-0--------------|
E---------------------------------------------------|

Play with 3rd Chorus
e-----2-------1-----------------------|
B---3---3---2---2-----2-------2h3p2---|
G-2-------2---------2---2---2---------|
D-----------------2-------2-----------|x2
A-------------------------------------|
E-------------------------------------|

Outro:
e---0-----------0--------0--------0----------5---------5-----0------0---|
B-2----2-2----2---2----2---2----2---2---7------7--6-----7--2----2-2---2-|
G-2-----2----2-2--------2-----0--0------7--7------7--7-----2----2-2-----|
D-2---------3--------4--------2---------7---7-----7---7----2----2-2-----|
A---------------------------------------5---------5--------0----0-0-----|
E-----------------------------------------------------------------------|

Lyrics:
I text a postcard, sent to you
Did it go through?
Sending all my love to you
You are the moonlight of my life every night
Giving all my love to you
My beating heart belongs to you
I walked for miles 'til i found you
I'm here to honor you
If i lose everything in the fire
I'm sending all my love to you

With every breath that i am worth
Here on earth
I'm sending all my love to you
So if you dare to second guess
You can rest assure
That all my love's for you

My beating heart belongs to you
I walked for miles 'til i found you
I'm here to honor you
If i lose everything in the fire
I'm sending all my love to you

My beating heart belongs to you
I walked for miles 'til i found you
I'm here to honor you
If i lose everything in the fire
I'm sending all my love to you


if you have any corrections just email me at weredustinthewind92@yahoo.com. thank you
Comments