Green Day - Know Your Enemy Chords & Tabs

 

Know Your Enemy Chords & Tabs

Green Day Chords & Tabs

Version: 9 Type: Tab 0 ratings
1 star 2 stars 3 stars 4 stars 5 stars
comments

Know Your Enemy Tab

Know Your Enemy
By Green Day


E||-------|------------------|-------------------------|3X
B||-------|o-----------------|------------------------o|
G||--x-x--|---------4-4------|--x-x-------4-4----------|
D||--x-x--|---4~-4~-2-2-4-4--|--x-x-4~-4~-2-2-4-4-2~---|
A||--x-x--|oŚ-2~-2~-----2-2--|--x-x-2~-2~-----2-2-0~--o|
E||-------|------------------|-------------------------|

E|-----------------|-------------|-----------|
B|-----------------|-------------|-----------|
G|--------4-4------|--x-x--------|-----------|
D|--4~-4~-2-2-4-4--|--x-x-4-4-4--|--4-4-4-4--|
A|--2~-2~-----2-2--|--x-x-4-4-4--|--4-4-4-4--|
E|-----------------|------2-2-2--|--2-2-2-2--|

E|------------------|------------------------|-------------------|-----------|------------|8X
B|o-----------------|------------------------|-------------------|-----------|-----------o|
G|---------4-4------|--x-x-------4-4---------|--------4-4--------|-----------|------------|
D|---4~-4~-2-2-4-4--|--x-x-4~-4~-2-2-4-4-2~--|--4-4-4-2-2-4-4-2--|--4-4-4-4--|--4-4-4-4---|
A|oŚ-2~-2~-----2-2--|--x-x-2~-2~-----2-2-0~--|--2-2-2-----2-2-2--|--4-4-4-4--|--4-4-4-4--o|
E|------------------|------------------------|----------------0--|--2-2-2-2--|--2-2-2-2---|

E|------------|-----------|-----------|------------|3X
B|o--5-5-5-5--|--5-5-5----|-----------|-----------o|
G|---x-x-x-x--|--x-x-x-4--|--4-4-4-4--|--4-4-4-4---|
D|---2-2-2-2--|--2-2-2-x--|--x-x-x-x--|--x-x-x-x---|
A|o-----------|--------2--|--2-2-2-2--|--2-2-2-2--o|
E|------------|-----------|-----------|------------|

E|-----------------|-----------------|
B|-----------------|-----------------|
G|-----------------|--x-x------------|
D|--------4-4------|--x-x-----4------|
A|--4~-4~-2-2-4-4--|--x-x-4-4-2-4-4--|
E|--2~-2~-----2-2--|------2-2---2-2--|

E|----------------|---------------|---------------|--11--------------|
B|o--12-12-12-----|--12-12--------|-----12----12--|-----12-----------|
G|------------11--|--------11-11--|--11----11-----|--------11b12b11--|
D|----------------|---------------|---------------|------------------|
A|o---------------|---------------|---------------|------------------|
E|----------------|---------------|---------------|------------------|

E|---------------|---------------|---------------|----------------|2X
B|--12-12-12-----|--12-12-12-----|--14-14----14--|--14----14-----o|
G|-----------11--|-----------11--|--------11-----|-----11----11---|
D|---------------|---------------|---------------|----------------|
A|---------------|---------------|---------------|---------------o|
E|---------------|---------------|---------------|----------------|
[ Tab from: http://www.guitartabs.cc/tabs/g/green_day/know_your_enemy_tab_ver_9.html ]
E|-------------|------------|------------|-----------------|3X  |-------|
B|o------12----|------12----|------------|--12------------o|    |-------|
G|---9-9----9--|--9-8-------|------11----|-----11----------|    |--11~--|
D|-------------|---------9--|--9-9----9--|--------9b10b9---|    |--11~--|
A|o------------|------------|------------|----------------o|    |-------|
E|-------------|------------|------------|-----------------|    |-------|

E|------------------|----------------------|5X
B|o-----------------|---------------------o|
G|------------------|-x-x------------------|
D|---------4-4------|-x-x-----4------------|
A|o--4~-4~-2-2-4-4--|-x-x-4-4-2-4-4-4-2~--o|
E|---2~-2~-----2-2--|-----2-2---2-2-2-0~---|

E|-------------------|-----------|-----------|
B|-------------------|-----------|-----------|
G|----------------x--|--x-x-x-x--|--x-x-x-x--|
D|--------4-4-----x--|--x-x-x-x--|--x-x-x-x--|
A|--4~-4~-2-2-4-4-x--|--x-x-x-x--|--x-x-x-x--|
E|--2~-2~-----2-2----|-----------|-----------|

E|------------------|-------------------------|3X
B|o-----------------|------------------------o|
G|---------4-4------|--x-x-------4-4----------|
D|---4~-4~-2-2-4-4--|--x-x-4~-4~-2-2-4-4-2~---|
A|oŚ-2~-2~-----2-2--|--x-x-2~-2~-----2-2-0~--o|
E|------------------|-------------------------|

E|-----------------|-------------|-----------|
B|-----------------|-------------|-----------|
G|--------4-4------|--x-x--------|-----------|
D|--4~-4~-2-2-4-4--|--x-x-4-4-4--|--4-4-4-4--|
A|--2~-2~-----2-2--|--x-x-4-4-4--|--4-4-4-4--|
E|-----------------|------2-2-2--|--2-2-2-2--|

E|------------------|------------------------|-------------------|-----------|------------|4X
B|o-----------------|------------------------|-------------------|-----------|-----------o|
G|---------4-4------|--x-x-------4-4---------|--------4-4--------|-----------|------------|
D|---4~-4~-2-2-4-4--|--x-x-4~-4~-2-2-4-4-2~--|--4-4-4-2-2-4-4-2--|--4-4-4-4--|--4-4-4-4---|
A|oŚ-2~-2~-----2-2--|--x-x-2~-2~-----2-2-0~--|--2-2-2-----2-2-2--|--4-4-4-4--|--4-4-4-4--o|
E|------------------|------------------------|----------------0--|--2-2-2-2--|--2-2-2-2---|

DURING THE LAST 2 REPEATS OF THIS ^^^ PLAY THIS ALSO:

E|----------------|---------------|---------------|--11--------------|
B|o--12-12-12-----|--12-12--------|-----12----12--|-----12-----------|
G|------------11--|--------11-11--|--11----11-----|--------11b12b11--|
D|----------------|---------------|---------------|------------------|
A|o---------------|---------------|---------------|------------------|
E|----------------|---------------|---------------|------------------|

E|---------------|---------------|---------------|----------------|2X
B|--12-12-12-----|--12-12-12-----|--14-14----14--|--14----14-----o|
G|-----------11--|-----------11--|--------11-----|-----11----11---|
D|---------------|---------------|---------------|----------------|
A|---------------|---------------|---------------|---------------o|
E|---------------|---------------|---------------|----------------|

E|------|    |-------|
B|------|    |--12~--|
G|--4~--|and |-------|
D|--2~--|    |-------| 
A|--2~--|    |-------|
E|------|    |-------|
Comments