Green Day - Know Your Enemy Chords & Tabs

 

Know Your Enemy Chords & Tabs

Green Day Chords & Tabs

Version: 14 Type: Tab 0 ratings
1 star 2 stars 3 stars 4 stars 5 stars
comments

Know Your Enemy Tab

Song: Know Your Enemy (Solo)
Album: 21st Century Breakdown
Standard Tuning
Tabbed by Bevlander


e||-------------------------------------11--------------------------------------------------------|
B||-12-12-12----12-12----------12----12----12-----12-12-12----12-12-12----14-14----14-14----14----|
G||----------11-------11-11-11----11----------11~~---------11----------11-------11-------11----11-|
D||-----------------------------------------------------------------------------------------------|
A||-----------------------------------------------------------------------------------------------|
E||-----------------------------------------------------------------------------------------------|

e|-------------------------------------11--------------------------------------------------------|
B|-12-12-12----12-12----------12----12----12-----12-12-12----12-12-12----14-14----14-14----14----|
G|----------11-------11-11-11----11----------11~~---------11----------11-------11-------11----11-|
D|-----------------------------------------------------------------------------------------------|
A|-----------------------------------------------------------------------------------------------|
E|-----------------------------------------------------------------------------------------------|
[ Tab from: http://www.guitartabs.cc/tabs/g/green_day/know_your_enemy_tab_ver_14.html ]
e|---------------------------------------------------------------------------|
B|-----12-------12------------12------------12-------12------------12--------|
G|-9-9----9-9-8----------11------11-----9-9----9-9-8----------11------11-----|
D|-----------------9-9-9----9-------9-9-----------------9-9-9----9-------9-9-|
A|---------------------------------------------------------------------------|
E|---------------------------------------------------------------------------|

e|--------------------------------------------||
B|-----12-------12------------12--------/-11--||
G|-9-9----9-9-8----------11------11-----/-11--||
D|-----------------9-9-9----9-------9-9-------||
A|--------------------------------------------||
E|--------------------------------------------||

====================================================================================
Alternatively here is another tab for the second part of the solo which I believe sounds 
as good but is alot easier
if your fingers have trouble keeping up with the music like mine :)
It takes out two notes.

e|-----------------------------------------------------------------|
B|-----12-------------------12---------12-------------------12-----|
G|-9-9----9-9-8-----11---11--------9-9----9-9-8-----11---11--------|
D|--------------9-9----9-------9-9--------------9-9----9-------9-9-|
A|-----------------------------------------------------------------|
E|-----------------------------------------------------------------|

e|---------------------------------------||
B|-----12-------------------12------/11--||
G|-9-9----9-9-8-----11---11--------/11---||
D|--------------9-9----9-------9-9-------||
A|---------------------------------------||
E|---------------------------------------||
Comments