Green Day - Know Your Enemy Chords & Tabs

 

Know Your Enemy Chords & Tabs

Green Day Chords & Tabs

Version: 13 Type: Tab 0 ratings
1 star 2 stars 3 stars 4 stars 5 stars
comments

Know Your Enemy Tab

e|--7--7--7-----7--7-----------7-----7--11--7-----7--7--7-----7--7--7--------|
B|-----------7--------7--7--7-----7------------7-----------7-----------7-----|
G|---------------------------------------------------------------------------|
D|---------------------------------------------------------------------------|
A|---------------------------------------------------------------------------|
E|---------------------------------------------------------------------------|

e|--9--9-----9--9-----9-----7--7--7-----7--7-----------7-----7--11--7--------|
B|--------7--------7-----7-----------7--------7--7--7-----7------------7-----|
G|---------------------------------------------------------------------------|
D|---------------------------------------------------------------------------|
A|---------------------------------------------------------------------------|
E|---------------------------------------------------------------------------|
[ Tab from: http://www.guitartabs.cc/tabs/g/green_day/know_your_enemy_tab_ver_13.html ]
e|--7--7--7-----7--7--7-----9--9-----9--9-----9-----------7-----------7------|
B|-----------7-----------7--------7--------7-----7--5--5-----5--5--4---------|
G|---------------------------------------------------------------------------|
D|---------------------------------------------------------------------------|
A|---------------------------------------------------------------------------|
E|---------------------------------------------------------------------------|

e|-----------------7--------------7-----------7-----------------7------------|
B|-----------7---------7-----5--5-----5--5--4-------------7----------7-------|
G|--4--4--4-----4--------4-----------------------4--4--4-----4--------4------|
D|---------------------------------------------------------------------------|
A|---------------------------------------------------------------------------|
E|---------------------------------------------------------------------------|

e|--------7-----------7-----------------7---------------------------------------|
B|--5--5-----5--5--4--------------7---------7--/11------------------------------|
G|-----------------------4--4--4-----4--------4/11------------------------------|
D|------------------------------------------------------------------------------|
A|------------------------------------------------------------------------------|
E|------------------------------------------------------------------------------|
Comments