Green Day - Know Your Enemy Chords & Tabs

 

Know Your Enemy Chords & Tabs

Green Day Chords & Tabs

Version: 6 Type: Bass Tab 0 ratings
1 star 2 stars 3 stars 4 stars 5 stars
comments

Know Your Enemy Bass Tab

Tabbed by: stratd00d

Pretty easy song really, and I'm pretty sure this tab is 100% accurate.



CHORUS

Wait until Billie says "ra eh" the first time, then start playing.

E|-----------------------------|
A|-----------------------------|
D|-----------------------------|
G|-----2---2---2---2---2---2---|

    Do you know the  enemy            Do you know your enemy well

E|------------------------------|-----------------------------|
A|------------------------------|-----------------------------|
D|-----------7--7---------------|-----------7--7--------------|
G|--7--7--7---------7--7--------|-----7--7--------7--7--7--5--|

    gotta know the enemy    ra    eh

E|-----------------------------|--------------------------|
A|-----------------------------|--------------------------|
D|-----------7--7--------------|--------------------------|
G|--7--7--7--------7--7--7--0--|--2--2--2--2--2--2--2--2/-|



FIRST VERSE

    Violence is an energy             against the enemy    well

E|------------------------------|-----------------------------|
A|------------------------------|-----------------------------|
D|-----------7--7---------------|-----------7--7--------------|
G|--7--7--7---------7--7--------|-----7--7--------7--7--7--5--|

    violence is an energy   ra    eh

E|-----------------------------|--------------------------|
A|-----------------------------|--------------------------|
D|-----------7--7--------------|--------------------------|
G|--7--7--7--------7--7--7--0--|--2--2--2--2--2--2--2--2/-|

    Overthrow the effigy              the vast majority    while

E|------------------------------|-----------------------------|
A|------------------------------|-----------------------------|
D|-----------7--7---------------|-----------7--7--------------|
G|--7--7--7---------7--7--------|-----7--7--------7--7--7--5--|

   burning down the foreman of control (oh ay oh ay)

E|-----------------------------|--------------------------|
A|-----------------------------|--------------------------|
D|-----------7--7--------------|--------------------------|
G|--7--7--7--------7--7--7--0--|--2--2--2--2--2--2--2--2/-|

    Bringing on the fury             the choir infantry    revolt

E|------------------------------|-----------------------------|
A|------------------------------|-----------------------------|
D|-----------7--7---------------|-----------7--7--------------|
G|--7--7--7---------7--7--------|-----7--7--------7--7--7--5--|

    against the honor to obey    (oh ay oh ay)

E|-----------------------------|--------------------------|
A|-----------------------------|--------------------------|
D|-----------7--7--------------|--------------------------|
G|--7--7--7--------7--7--7--0--|--2--2--2--2--2--2--2--2/-|

    Silence is the enemy              against your urgency so
[ Tab from: http://www.guitartabs.cc/tabs/g/green_day/know_your_enemy_btab_ver_6.html ]
E|------------------------------|-----------------------------|
A|------------------------------|-----------------------------|
D|-----------7--7---------------|-----------7--7--------------|
G|--7--7--7---------7--7--------|-----7--7--------7--7--7--5--|

    rally up the demons of your soul (oh ay oh ay)

E|-----------------------------|--------------------------|
A|-----------------------------|--------------------------|
D|-----------7--7--------------|--------------------------|
G|--7--7--7--------7--7--7--0--|--2--2--2--2--2--2--2--2/-|



REPEAT CHORUS

At the end of chorus, last two notes:  The in-


BRIDGE

    surgency       will  rise                    when the

E|--------------------------|--------------------------|
A|--------------------------|--------------------------|
D|--7--7--7--7--7--7--7-----|--------------------------|
G|-----------------------7--|--7--7--7--7--7--7--7--0--|

    blood's     been     sacrificed              Don't be

E|--------------------------|--------------------------|
A|--------------------------|--------------------------|
D|--7--7--7--7--7--7--7-----|--------------------------|
G|-----------------------7--|--7--7--7--7--7--7--7--0--|

    blinded     by the   lies              in your eyes

E|--------------------------|--------------------------|
A|--------------------------|--------------------------|
D|--7--7--7--7--7--7--7-----|--------------------------|
G|-----------------------7--|--7--7--7--7--7--7--7--0--|



BASS FILL

E|--------------------------|--------------------------|
A|--------------------------|--------------------------|
D|--7--7--7--7--7--7--------|--------------------------|
G|--------------------5--7--|--7--7--7--7--7--7--7\----|



SOLO

E|------------------------------|-----------------------------|
A|------------------------------|-----------------------------|
D|-----------7--7---------------|-----------7--7--------------|
G|--7--7--7---------7--7--------|-----7--7--------7--7--7--5--|


E|-----------------------------|--------------------------|
A|-----------------------------|--------------------------|
D|-----------7--7--------------|--------------------------|
G|--7--7--7--------7--7--7--0--|--2--2--2--2--2--2--2--2/-|


Bass cuts out, and guitar plays second verse alone.
Then guitar plays main riff twice (w/o bass).

After that, bass joins in to finish outro.



OUTRO

E|------------------------------|-----------------------------|
A|------------------------------|-----------------------------|
D|-----------7--7---------------|-----------7--7--------------|
G|--7--7--7---------7--7--------|-----7--7--------7--7--7--5--|


E|-----------------------------|----------------------------|
A|-----------------------------|----------------------------|
D|-----------7--7--------------|----------------------------|
G|--7--7--7--------7--7--7--0--|--2--2--2--2--2--2--2--2/7\-|


Comments