Green Day - Know Your Enemy Chords & Tabs

 

Know Your Enemy Chords & Tabs

Green Day Chords & Tabs

Version: 5 Type: Bass Tab 0 ratings
1 star 2 stars 3 stars 4 stars 5 stars
comments

Know Your Enemy Bass Tab

Know Your Enemy - Green Day
21st Century Breakdown

This is the correct way of playing Know Your Enemy, it's not too difficult, but fun to play.

Rest until Billie Joe says "Well gotta know the enemy, right here"

Play this 1 time
Intro
G------------|
D------------|
A------------|
E-2222222----|

Play this 8 times
Main Riff
G----------------------------------------------------------------------------|
D----------------------------------------------------------------------------|
A----77----------77---------77-----------------------------------------------|
E-77----77-xx-77----77-5-77----77-2222222------------------------------------|

Then play this 3 times
After Chorus Riff
G----------------------------------------------------------------------------|
D----------------------------------------------------------------------------|
A-----77764------------------------------------------------------------------|
E-----------77777777---------------------------------------------------------|
[ Tab from: http://www.guitartabs.cc/tabs/g/green_day/know_your_enemy_btab_ver_5.html ]
Then play this 1 time before the guitar solo
G----------------------------------------------------------------------------|
D----------------------------------------------------------------------------|
A----------------------------------------------------------------------------|
E-22-222-xx-222222-----------------------------------------------------------|

Then play the main riff 2 times, then play the After Chorus Riff 3 times. Then rest 
Billie Joe sings 'Give me give me revolution", and play this

G----------------------------------------------------------------------------|
D----------------------------------------------------------------------------|
A----------------------------------------------------------------------------|
E-77777777-------------------------------------------------------------------|

Then rest like at the beginning until he sings "Well gotta know the enemy, right here", 
play the Intro, and then the Main Riff 4 times and end on this.

G----------------------------------------------------------------------------|
D----------------------------------------------------------------------------|
A----------------------------------------------------------------------------|
E-7--------------------------------------------------------------------------|
Comments