Green Day - Judges Daughter Chords & Tabs

 

Judges Daughter Chords & Tabs

Green Day Chords & Tabs

Version: 1 Type: Tab 0 ratings
1 star 2 stars 3 stars 4 stars 5 stars
comments

Judges Daughter Tab

   
The Judge's Daughter
Green Day
1,039/Smoothed Out Slappy Hours
Lyrics: Billie Joe Armstrong
Music: Green Day
Tuning: Normal
Notes:

h = hammer-on
p = pull-off
b = bend
/ = slide up
\ = slide down
5 = power chord

Verse (x4)
   G5   F5   C5   G5
e|---------------------------------------------------------------|
B|---------------------------------------------------------------|
G|-----------5---------------------------------------------------|
D|-5----3----5----5----------------------------------------------|
A|-5----3----3----5----------------------------------------------|
E|-3----1---------3----------------------------------------------|
[ Tab from: http://www.guitartabs.cc/tabs/g/green_day/judges_daughter_tab.html ]
Chorus
   C5   D5   G5 F5 G5 (x2) C5   D5   C5   D5   G5 F5 G5   G5 F5 G5
e|---------------------------------------------------------------|
B|---------------------------------------------------------------|
G|-5----7------------------5----7----5----7----------------------|
D|-5----7----5---3-5-------5----7----5----7----5---3-5----5---3-5|
A|-3----5----5---3-5-------3----5----3----5----5---3-5----5---3-5|
E|-----------3---1-3---------------------------3---1-3----3---1-3|

Bridge (x4)
   G5 F5 G5
e|---------------------------------------------------------------|
B|---------------------------------------------------------------|
G|---------------------------------------------------------------|
D|-5---3-5-------------------------------------------------------|
A|-5---3-5-------------------------------------------------------|
E|-3---1-3-------------------------------------------------------|

Solo (played over verse chords) (not tabbed yet)
e|---------------------------------------------------------------|
B|---------------------------------------------------------------|
G|---------------------------------------------------------------|
D|---------------------------------------------------------------|
A|---------------------------------------------------------------|
E|---------------------------------------------------------------|


Order

Verse 1
Chorus 1
G5-F5-C5-G5 x2
Verse 2
Chorus 2
Bridge
Solo
Chorus 1
Bridge
Comments