Green Day - Jesus Of Suburbia Chords & Tabs

 

Jesus Of Suburbia Chords & Tabs

Green Day Chords & Tabs

Version: 6 Type: Tab 0 ratings
1 star 2 stars 3 stars 4 stars 5 stars
comments

Jesus Of Suburbia Tab

   
같같같같같같같같같같같같같같같같같같같같같같같같같같같같같같같같같같같
		Green Day - Jesus of Suburbia
같같같같같같같같같같같같같같같같같같같같같같같같같같같같같같같같같같같
Tabbed by: Jason Kim
Email: rocesblader13@hotmai.com

I ordered the lines by numbers that look like "1)".  That shows the order the lines
should be played... Didnt put chorus, verse, verse2, and so on. Note that this isn't
broken up into the seperate songs this song is made up of.

Tuning: Normal ::E A D G B E::

( ) = another guitar part as a solo/background

     2x                                   On last time.  8x fast strum
1) e|------------------------------------|--------------------------------|
4) B|-6--6--6-6---------------16x strum--|-replace 4 strums on last chord-|
   G|-6--6--6-6---3--3--3-3--------------|--------------------------------|
   D|-6--6--6-6---3--3--3-3---4--6-------|--x-----------------------------|
   A|-4--4--4-4---1--1--1-1---4--6-------|--x-----------------------------|
   E|-------------------------2--4-------|--x-----------------------------|

     2x                        after the 2x
2) e|-------------------------|----------------------|
5) B|-------------------------|----------------------|
   G|-------------------------|----------------------|
   D|-4--4--44--46--66--6666--|-4--4--44--46--6-6666-|
   A|-4--4--44--46--66--6666--|-4--4--44--46--6-6666-|
   E|-2--2--22--24--44--4444--|-2--2--22--24--4-4444-|

     2x
3) e|----------------------|
6) B|----------------------|
   G|-6--6-----------------|
   D|-6--6--66---4-4444444-|
   A|-4--4--66---4-4444444-|
   E|-------44-2-2-2222222-|

     Same strumming as intro
7) e|------------------------------------------------------|-------------------|
   B|------------------------------------------------------|-------------------|
   G|-6--6--6-6---3--3--3-3----------6--6--6-6-------------|-3-3-3-------------|
   D|-6--6--6-6---3--3--3-3---4--6---6--6--6-6--3--3--3-3--|-3-3-3-6-6-6-4~~6~~|
   A|-4--4--4-4---1--1--1-1---4--6---4--4--4-4--3--3--3-3--|-1-1-1-6-6-6-4~~6~~|
   E|-------------------------2--4--------------1--1--1-1--|-------4-4-4-2~~4~~|


8)  e|------------------------------------------------------|
10) B|-------8x strum------------------------8x strum-------|
    G|---------------------------------------------------6\-|
    D|--12\--4---6---------------------------4----6------6\-|
    A|--12\--4---6------4--6-4-3-----4-------4----6------4\-|
    E|--10\--2---4----------------6----6-4---2----4---------|

      2x
9)  e|-----------------------------------------------------------------|
    B|-----------------------------------------------------------------|
    G|-33333---------66666---------12\-3-3-3-3-------------------------|
    D|-33333--66666--66666--44444--12\-3-3-3-3-6-6-6-6-4-4-4-4-4-4-4-4-|
    A|-11111--66666--44444--44444--10\-1-1-1-1-6-6-6-6-4-4-4-4-4-4-4-4-|
    E|--------44444---------22222--------------4-4-4-4-2-2-2-2-2-2-2-2-|
                                                       |______________|
      2x                                                       /
11) e|-----------------------|  Play it like 9)               /
    B|-very fast strumming---|  but at the end               /
    G|--(triplets)-----------|  of the 2nd time,            /
    D|-444-444-444-444-44-44-|  play this.                 /
    A|-444-444-444-444-44-44-|  <-------------------------/
    E|-222-222-222-222-22-22-|
[ Tab from: http://www.guitartabs.cc/tabs/g/green_day/jesus_of_suburbia_tab_ver_6.html ]
      5x  (solo first time only)                                             Play
12) e|----------------------------(1)------(2)(2)(2)(1)---------------(4)-|--last--|
    B|----------(3)(3)(3)------------(4)(2)------------(4)(2)(4)(4)(4)----|--time--|
    G|-(1)(1)(1)-6--6--6-(1)(1)(1)-6--6--6-----------6--6--6--------------|--------|
    D|--6--6--6--6--6--6--6--6--6--6--6--6--4--4--4--6--6--6--4--4--4--4--|--4--6--|
    A|--6--6--6--4--4--4--6--6--6--4--4--4--4--4--4--4--4--4--4--4--4--4--|--4--6--|
    E|--4--4--4-----------4--4--4-----------2--2--2-----------2--2--2--2--|--2--4--|

      4x   fast strumming          8x
13) e|---------------------------|-----|
    B|---------------------------|-----|
    G|-6-666-666-666-666-666-----|-----|
    D|-6-666-666-666-666-666-7-6-|-7-6-|
    A|-4-444-444-444-444-444-7-6-|-7-6-|
    E|-----------------------5-4-|-5-4-|

      3x                           1x
14) e|----------------------------|----------------------------|
    B|-----fast strumming---------|----------------------------|
    G|------------------------6---|----------------------------|
    D|-4-444-444-444-6-666-66-6-6-|-4-444-444-444-6-666-66-4-6-|
    A|-4-444-444-444-6-666-66-4-6-|-4-444-444-444-6-666-66-4-6-|
    E|-2-222-222-222-4-444-44---4-|-2-222-222-222-4-444-44-2-4-|

      4x
15) e|----------------------------|---------------------|
    B|----------------------------|---------------------|
    G|-6-666-666-666-666-66-------|-6--6--6--6----------|
    D|-6-666-666-666-666-66--4-6--|-6--6--6--6--6666~~~-|
    A|-4-444-444-444-444-44--4-6--|-4--4--4--4--6666~~~-|
    E|-----------------------2-4--|-------------4444~~~-|

16) e|----fast strumming------|
    B|------------------------|
    G|------555--666------558-|
    D|-666--555--666--666-558-|
    A|-666--333--444--666-336-|
    E|-444------------444-----|

      6x acoustic                                           end of last time
17) e|-4--4--4--44--3--3--3--33----------------------------|--------|
    B|-4--4--4--44--4--4--4--44--6--6--6--66--4--4--8--88--|--------|
    G|-5--5--5--55--5--5--5--55--6--6--6--66--5--5--8--88--|-----6--|
    D|-6--6--6--66--5--5--5--55--6--6--6--66--5--5--8--88--|--4--6--|
    A|-----------------------------------------------------|--4--4--|
    E|-----------------------------------------------------|--2-----|


18) e|---------------------------------|
    B|---------------------------------|
    G|-------6-------6-------6-------6-|
    D|-6---4-6-6---4-6-6---4-6-6---4-6-|
    A|-6---4-4-6---4-4-6---4-4-6---4-4-|
    E|-4---2---4---2---4---2---4---2---|

      8x
19) e|-----------------|
21) B|-----------------|  on 28) play it 4x
28) G|---------------6-|
    D|-66-66-66-66-4-6-|
    A|-66-66-66-66-4-4-|
    E|-44-44-44-44-2---|
                                           ______
      2x                                  /      \
20) e|(4)-(4)-(4)---(3)(4)(3)(4)(3)(4)|-------|   \
22) B|(2)-(2)-(2)---(3)(4)(3)(4)(3)(4)|-------|    \
23) G|-6---6---6--------8-----8-----8-|----6--|    at end of 23)
    D|-6-6-6-6-6-6---6--8--6--8--6--8-|--4-6--|     replace last
    A|-4-6-4-6-4-6---6--6--6--6--6--6-|--4-4--|     two chords
    E|---4---4---4---4-----4-----4----|--2----|

                       at same time
24) e|---------------|-----------------------------------------------|
29) B|---------------|-----------------------------------------------|
    G|------6------6-|-88-88-88-88-----------------------------------|
    D|-6--4-6-6--4-6-|-88-88-88-88-----------------------------------|
    A|-6--4-4-6--4-4-|-66-66-66-66-----------------------------------|
    E|-4--2---4--2---|-----------------------------------------------|

      background 8x (solo 2x)
25) e|(4)-------------------------------------|
    B|-------(2/-1-\2-4)--(2)-(1)---------(1)-|
    G|----------------6-----------(3/8\3)-----|
    D|-66-66-66-66--4-6-----------------------|
    A|-66-66-66-66--4-4-----------------------|
    E|-44-44-44-44--2-------------------------|

      2x
26) e|-2p1-4p1-2p1-4p1-2p1--4p3-7p3-4p3-7p3-4p3----------------------------|
    B|-2~~~~~~~~~~~~~~~~~~--4~~~~~~~~~~~~~~~~~~----------------------------|
    G|---------------------------------------------------------------------|
    D|---------------------------------------------------------------------|
    A|---------------------------------------------------------------------|
    E|---------------------------------------------------------------------|

27)  ♫♫ PIANO ♫♫

     end song with this
30) e|-----|
    B|-----|
    G|-----|
    D|--6--|
    A|--6--|
    E|--4--|
Comments