Green Day - Jesus Of Suburbia Chords & Tabs

 

Jesus Of Suburbia Chords & Tabs

Green Day Chords & Tabs

Version: 2 Type: Tab 1 rating
1 star 2 stars 3 stars 4 stars 5 stars
comments

Jesus Of Suburbia Tab

   
Artist: Green Day [Billie Joe Armstrong, Mike Pritchard, Frank Wright]
Song: Jesus of Suburbia [Track 2]
Album: American Idiot [2004]
Guitarist: Billie Joe Armstrong, Jason White
Tabs By: Jonathon Knodle [noodleman5@msn.com]

Tuning: Standard [e B G D A e]

------------------------------------------------------------
I.   Jesus of Suburbia
------------------------------------------------------------

Verse: (Guitar 1 & 2 w/ Distortion)
e|---------------------------------------------------------|
B|---------------------------------------------------------|
G|-6-6-6-6-------------------------------------------------|
D|-6-6-6-6----8-8-8-8----444444444444444--666666666666666--|
A|-4-4-4-4----8-8-8-8----444444444444444--666666666666666--|
E|------------6-6-6-6----222222222222222--444444444444444--|

e|---------------------------------------------------------|
B|---------------------------------------------------------|
G|-6-6-6-6-------------------------------------------------|
D|-6-6-6-6----8-8-8-8----444444444444444--666666666666666--|
A|-4-4-4-4----8-8-8-8----444444444444444--666666666666666--|
E|------------6-6-6-6----222222222222222--444444444444444--|

Chorus: (Guitar 1 & 2 w/ Distortion)
e|------------------------------------------------|
B|------------------------------------------------|
G|------------------------------------------------|
D|-444444--666666--444444--666666--444444--66666--|
A|-444444--666666--444444--666666--444444--66666--|
E|-222222--444444--222222--444444--222222--44444--|

Bridge: (Guitar 1 & 2 w/ Distortion)
e|---------------------------------------------|
B|---------------------------------------------|
G|-6-6--------------------6-6------------------|
D|-6-6--6-6--4-4444444----6-6--6-6--4-4444444--|
A|-4-4--6-6--4-4444444----4-4--6-6--4-4444444--|
E|------4-4--2-2222222---------4-4--2-2222222--|

Verse: (Guitar 1 & 2 w/ Distortion) 
e|---------------------------------------------------------|
B|---------------------------------------------------------|
G|-6-6-6-6-------------------------------------------------|
D|-6-6-6-6----8-8-8-8----444444444444444--666666666666666--|
A|-4-4-4-4----8-8-8-8----444444444444444--666666666666666--|
E|------------6-6-6-6----222222222222222--444444444444444--|

e|---------------------------------------------------------|
B|---------------------------------------------------------|
G|-6-6-6-6-------------------------------------------------|
D|-6-6-6-6----8-8-8-8----444444444444444--666666666666666--|
A|-4-4-4-4----8-8-8-8----444444444444444--666666666666666--|
E|------------6-6-6-6----222222222222222--444444444444444--|

Chorus: (Guitar 1 & 2 w/ Distortion)   
e|------------------------------------------------|
B|------------------------------------------------|
G|------------------------------------------------|
D|-444444--666666--444444--666666--444444--66666--|
A|-444444--666666--444444--666666--444444--66666--|
E|-222222--444444--222222--444444--222222--44444--|

Bridge: (Guitar 1 & 2 w/ Distortion)  
e|---------------------------------------------|
B|---------------------------------------------|
G|-6-6--------------------6-6------------------|
D|-6-6--6-6--4-4444444----6-6--6-6--4-4444444--|
A|-4-4--6-6--4-4444444----4-4--6-6--4-4444444--|
E|------4-4--2-2222222---------4-4--2-2222222--|

Instrumental: (Guitar 1 & 2 w/ Distortion)
e|---------------------------------------------------------|
B|---------------------------------------------------------|
G|-6-6-6-6-------------------------------------------------|
D|-6-6-6-6----8-8-8-8----444444444444444--666666666666666--|
A|-4-4-4-4----8-8-8-8----444444444444444--666666666666666--|
E|------------6-6-6-6----222222222222222--444444444444444--|
   
e|------------------------------------------------------|
B|------------------------------------------------------|
G|-6-6-6-6----------------------------------------------|
D|-6-6-6-6----3-3-3-3----8-8-8--6-6-6-------------------|
A|-4-4-4-4----3-3-3-3----8-8-8--6-6-6-------------------|
E|------------1-1-1-1----6-6-6--4-4-4----(Let-It-Ring)--|

------------------------------------------------------------
II.  City of the Damned
------------------------------------------------------------

Intro: (Guitar 2 w/ Distortion)
e|-----------|
B|-----------|	
G|-----------|
D|-4-----6---|
A|-4-----6---|
E|-2-----4---|

Verse: (Guitar 1 & 2 w/ Distortion)  
e|-----------------------------------|
B|-----------------------------------|
G|-6---------------------------------|
D|-6--6--8--6----44444444--66666666--|
A|-4--6--8--6----44444444--66666666--|
E|----4--6--4----22222222--44444444--|

e|-----------------------------------|
B|-----------------------------------|
G|-6---------------------------------|
D|-6--6--8--6----44444444--66666666--|
A|-4--6--8--6----44444444--66666666--|
E|----4--6--4----22222222--44444444--|

Chorus: (Guitar 1 & 2 w/ Distortion)
e|-------------------------------------------------------|
B|-------------------------------------------------------|
G|---------------66666-----------------------------------|
D|-88888--66666--66666--44444----88888--66666--44444444--|
A|-88888--66666--44444--44444----88888--66666--44444444--|
E|-66666--44444---------22222----66666--44444--22222222--|

e|--------------------------------------------------------------|
B|--------------------------------------------------------------|
G|---------------66666------------------------------------------|
D|-88888--66666--66666--44444----88888--66666--4----------------|
A|-88888--66666--44444--44444----88888--66666--4----------------|
E|-66666--44444---------22222----66666--44444--2-(Let-It-Ring)--|

Verse: (Guitar 1 & 2 w/ Distortion)  
e|-----------------------------------|
B|-----------------------------------|
G|-6---------------------------------|
D|-6--6--8--6----44444444--66666666--|
A|-4--6--8--6----44444444--66666666--|
E|----4--6--4----22222222--44444444--|

e|-----------------------------------|
B|-----------------------------------|
G|-6---------------------------------|
D|-6--6--8--6----44444444--66666666--|
A|-4--6--8--6----44444444--66666666--|
E|----4--6--4----22222222--44444444--|

Chorus: (Guitar 1 & 2 w/ Distortion)
e|-------------------------------------------------------|
B|-------------------------------------------------------|
G|---------------66666-----------------------------------|
D|-88888--66666--66666--44444----88888--66666--44444444--|
A|-88888--66666--44444--44444----88888--66666--44444444--|
E|-66666--44444---------22222----66666--44444--22222222--|

e|-------------------------------------------------------|
B|-------------------------------------------------------|
G|---------------66666-----------------------------------|
D|-88888--66666--66666--44444----88888--66666--44444444--|
A|-88888--66666--44444--44444----88888--66666--44444444--|
E|-66666--44444---------22222----66666--44444--22222222--|

------------------------------------------------------------
III. I Don't Care
------------------------------------------------------------
Intro:    
e|--------------------------------------------|
B|--------------------------------------------|
G|-------666--------666--------666------------|
D|-6666--666--6666--666--4444--666--66666666--|
A|-6666--444--6666--444--4444--444--66666666--|
E|-4444-------4444-------2222-------44444444--|

Intro lead:
e|-------------------------------------------------|
B|-----------------------6-----7-7-7-7-6-------9v--|
G|---------6-6-6-----------8-6-----------8-6-8-----|
D|-6-6-6-6-------6-6-6-6---------------------------|
A|-------------------------------------------------|
E|-------------------------------------------------|

Verse: (Guitar 1 & 2 w/ Distortion)
e|--------------------------------------------|
B|--------------------------------------------|
G|-------666--------666--------666------------|
D|-6666--666--6666--666--4444--666--66666666--|
A|-6666--444--6666--444--4444--444--66666666--|
E|-4444-------4444-------2222-------44444444--|

e|--------------------------------------------|
B|--------------------------------------------|
G|-------666--------666--------666------------|
D|-6666--666--6666--666--4444--666--66666666--|
A|-6666--444--6666--444--4444--444--66666666--|
E|-4444-------4444-------2222-------44444444--|

e|--------------------------------------------|
B|--------------------------------------------|
G|-------666--------666--------666------------|
D|-6666--666--6666--666--4444--666--66666666--|
A|-6666--444--6666--444--4444--444--66666666--|
E|-4444-------4444-------2222-------44444444--|

e|--------------------------------------------|
B|--------------------------------------------|
G|-------666--------666--------666------------|
D|-6666--666--6666--666--4444--666--66666666--|
A|-6666--444--6666--444--4444--444--66666666--|
E|-4444-------4444-------2222-------44444444--|

Instrumental: (Guitar 1 & 2 w/ Distortion) 	 
e|----------------------------------------------------------|
B|----------------------------------------------------------|
G|------666666-------666666-------666666-------666666-------|
D|-4-6--666666--7-6--666666--7-6--666666--7-6--666666--7-6--|
A|-4-6--444444--7-6--444444--7-6--444444--7-6--444444--7-6--|
E|-2-4----------5-4----------5-4----------5-4----------5-4--|

Verse: (Guitar 1 & 2 w/ Distortion)                         
e|---------------------|
B|---------------------|
G|---(bass)------------|
D|--------------7-6----|
A|-4-4-4-4-4-4--7-6----|
E|--------------5-4----|

e|---------------------|
B|---------------------|
G|---(bass)------------|
D|--------------7-6----|
A|-4-4-4-4-4-4--7-6----|
E|--------------5-4----|

e|---------------------|
B|---------------------|
G|---(bass)------------|
D|--------------7-6----|
A|-4-4-4-4-4-4--7-6----|
E|--------------5-4----|

e|---------------------|
B|---------------------|
G|---(bass)------------|
D|--------------7-6----|
A|-4-4-4-4-4-4--7-6----|
E|--------------5-4----|

e|---------------------|
B|---------------------|
G|---(bass)------------|
D|--------------7-6----|
A|-4-4-4-4-4-4--7-6----|
E|--------------5-4----|

e|---------------------|
B|---------------------|
G|---(bass)------------|
D|--------------7-6----|
A|-4-4-4-4-4-4--7-6----|
E|--------------5-4----|

e|---------------------|
B|---------------------|
G|---(bass)------------|
D|--------------7-6----|
A|-4-4-4-4-4-4--7-6----|
E|--------------5-4----|

e|---------------------|
B|---------------------|
G|---(bass)------------|
D|--------------7-6----|
A|-4-4-4-4-4-4--7-6----|
E|--------------5-4----|

Chorus: (Guitar 1 & 2 w/ Distortion)  
e|----------------|
B|----------------|
G|-----------6----|
D|-4444--66--6-6--|
A|-4444--66--4-6--|
E|-2222--44----4--|

e|----------------|
B|----------------|
G|-----------6----|
D|-4444--66--6-6--|
A|-4444--66--4-6--|
E|-2222--44----4--|

e|----------------|
B|----------------|
G|-----------6----|
D|-4444--66--6-6--|
A|-4444--66--4-6--|
E|-2222--44----4--|

e|-----------|
B|-----------|
G|-----------|
D|-4444--66--|
A|-4444--66--|
E|-2222--44--|

e|--------------|
B|--------------|
G|------666666--|
D|-4-6--666666--|
A|-4-6--444444--|
E|-2-4----------|

e|--------------|
B|--------------|
G|------666666--|
D|-4-6--666666--|
A|-4-6--444444--|
E|-2-4----------|
[ Tab from: http://www.guitartabs.cc/tabs/g/green_day/jesus_of_suburbia_tab_ver_2.html ]
e|--------------|
B|--------------|
G|------666666--|
D|-4-6--666666--|
A|-4-6--444444--|
E|-2-4----------|

e|--------------|
B|--------------|
G|------666666--|
D|-4-6--666666--|
A|-4-6--444444--|
E|-2-4----------|

e|--------------|
B|--------------|
G|------666666--|
D|-4-6--666666--|
A|-4-6--444444--|
E|-2-4----------|

Outro: (Guitar 1 & 2 w/ Distortion)  
e|-------------|
B|-------------|
G|-6-6-6-66----|
D|-6-6-6-66-6--|
A|-4-4-4-44-6--|
E|----------4--|
	   (Let ring)

------------------------------------------------------------
IV.  Dearly Beloved
------------------------------------------------------------

Verse: (Electric Guitar w/ Distortion)  
e|-----------------------------|
B|-----------------------------|
G|-------55----66----------88--|
D|-66----55----66----66----88--|
A|-66----33----44----66----66--|
E|-44----------------44--------|

Verse: (Acoustic Guitar)
e|------------------------------------------------|
B|------------------------------------------------|
G|------------555555555--666666666---------88888--|
D|-666666666--555555555--666666666--66666--88888--|
A|-666666666--333333333--444444444--66666--66666--|
E|-444444444------------------------44444---------|

Instrumental:
e|------------------------------------------------|
B|------------------------------------------------|
G|------------555555555--666666666---------88888--|
D|-666666666--555555555--666666666--66666--88888--|
A|-666666666--333333333--444444444--66666--66666--|
E|-444444444------------------------44444---------|

Verse:
e|------------------------------------------------|
B|------------------------------------------------|
G|------------555555555--666666666---------88888--|
D|-666666666--555555555--666666666--66666--88888--|
A|-666666666--333333333--444444444--66666--66666--|
E|-444444444------------------------44444---------|

e|------------------------------------------------|
B|------------------------------------------------|
G|------------555555555--666666666---------88888--|
D|-666666666--555555555--666666666--66666--88888--|
A|-666666666--333333333--444444444--66666--66666--|
E|-444444444------------------------44444---------|

Instrumental:
e|------------------------------------------------|
B|------------------------------------------------|
G|------------555555555--666666666---------88888--|
D|-666666666--555555555--666666666--66666--88888--|
A|-666666666--333333333--444444444--66666--66666--|
E|-444444444------------------------44444---------|

------------------------------------------------------------
 V.  Tales of Another Broken Home
------------------------------------------------------------

Intro: (Guitar 1 & 2 w/ Distortion) 
e|-------------------------------------------------------------|
B|-------------------------------------------------------------|
G|-------------6--------------6--------------6--------------6--|
D|-6--------4--6--6--------4--6--6--------4--6--6--------4--6--|
A|-6--------4--4--6--------4--4--6--------4--4--6--------4--4--|
E|-4--------2-----4--------2-----4--------2-----4--------2-----|

Main Riff: (Guitar 1 & 2 w/ Distortion)       
e|-------------------------------| 
B|-------------------------------| 
G|--------------------------6----| 
D|-6-6-6-6-6-6-6-6-6----4---6----| 
A|-6-6-6-6-6-6-6-6-6----4---4----| 
E|-4-4-4-4-4-4-4-4-4----2--------|

e|-------------------------------| 
B|-------------------------------| 
G|--------------------------6----| 
D|-6-6-6-6-6-6-6-6-6----4---6----| 
A|-6-6-6-6-6-6-6-6-6----4---4----| 
E|-4-4-4-4-4-4-4-4-4----2--------|

e|-------------------------------| 
B|-------------------------------| 
G|--------------------------6----| 
D|-6-6-6-6-6-6-6-6-6----4---6----| 
A|-6-6-6-6-6-6-6-6-6----4---4----| 
E|-4-4-4-4-4-4-4-4-4----2--------|

e|-------------------------------| 
B|-------------------------------| 
G|--------------------------6----| 
D|-6-6-6-6-6-6-6-6-6----4---6----| 
A|-6-6-6-6-6-6-6-6-6----4---4----| 
E|-4-4-4-4-4-4-4-4-4----2--------|

e|-------------------------------| 
B|-------------------------------| 
G|--------------------------6----| 
D|-6-6-6-6-6-6-6-6-6----4---6----| 
A|-6-6-6-6-6-6-6-6-6----4---4----| 
E|-4-4-4-4-4-4-4-4-4----2--------|

e|-------------------------------| 
B|-------------------------------| 
G|--------------------------6----| 
D|-6-6-6-6-6-6-6-6-6----4---6----| 
A|-6-6-6-6-6-6-6-6-6----4---4----| 
E|-4-4-4-4-4-4-4-4-4----2--------|

e|-------------------------------| 
B|-------------------------------| 
G|--------------------------6----| 
D|-6-6-6-6-6-6-6-6-6----4---6----| 
A|-6-6-6-6-6-6-6-6-6----4---4----| 
E|-4-4-4-4-4-4-4-4-4----2--------|

Chorus: (Guitar 1 & 2 w/ Distortion)   
e|-------------------------------------|
B|-------------------------------------|
G|-6-----6-----6-----8-----8-----8-----|
D|-6--6--6--6--6-6---8--6--8--6--8-6---|
A|-4--6--4--6--4-6---6--6--6--6--6-6---|
E|----4-----4----4------4-----4----4---|

e|-------------------------------------|
B|-------------------------------------|
G|-6-----6-----6-----8-----8-----8-----|
D|-6--6--6--6--6-6---8--6--8--6--8-6---|
A|-4--6--4--6--4-6---6--6--6--6--6-6---|
E|----4-----4----4------4-----4----4---|

Main Riff: (Guitar 1 & 2 w/ Distortion)       
e|-------------------------------| 
B|-------------------------------| 
G|--------------------------6----| 
D|-6-6-6-6-6-6-6-6-6----4---6----| 
A|-6-6-6-6-6-6-6-6-6----4---4----| 
E|-4-4-4-4-4-4-4-4-4----2--------|

e|-------------------------------| 
B|-------------------------------| 
G|--------------------------6----| 
D|-6-6-6-6-6-6-6-6-6----4---6----| 
A|-6-6-6-6-6-6-6-6-6----4---4----| 
E|-4-4-4-4-4-4-4-4-4----2--------|

e|-------------------------------| 
B|-------------------------------| 
G|--------------------------6----| 
D|-6-6-6-6-6-6-6-6-6----4---6----| 
A|-6-6-6-6-6-6-6-6-6----4---4----| 
E|-4-4-4-4-4-4-4-4-4----2--------| 

e|-------------------------------| 
B|-------------------------------| 
G|--------------------------6----| 
D|-6-6-6-6-6-6-6-6-6----4---6----| 
A|-6-6-6-6-6-6-6-6-6----4---4----| 
E|-4-4-4-4-4-4-4-4-4----2--------|

e|-------------------------------| 
B|-------------------------------| 
G|--------------------------6----| 
D|-6-6-6-6-6-6-6-6-6----4---6----| 
A|-6-6-6-6-6-6-6-6-6----4---4----| 
E|-4-4-4-4-4-4-4-4-4----2--------|

e|-------------------------------| 
B|-------------------------------| 
G|--------------------------6----| 
D|-6-6-6-6-6-6-6-6-6----4---6----| 
A|-6-6-6-6-6-6-6-6-6----4---4----| 
E|-4-4-4-4-4-4-4-4-4----2--------|

e|-------------------------------| 
B|-------------------------------| 
G|--------------------------6----| 
D|-6-6-6-6-6-6-6-6-6----4---6----| 
A|-6-6-6-6-6-6-6-6-6----4---4----| 
E|-4-4-4-4-4-4-4-4-4----2--------|

Chorus: (Guitar 1 & 2 w/ Distortion)   
e|-------------------------------------|
B|-------------------------------------|
G|-6-----6-----6-----8-----8-----8-----|
D|-6--6--6--6--6-6---8--6--8--6--8-6---|
A|-4--6--4--6--4-6---6--6--6--6--6-6---|
E|----4-----4----4------4-----4----4---|

e|-------------------------------------|
B|-------------------------------------|
G|-6-----6-----6-----8-----8-----8-----|
D|-6--6--6--6--6-6---8--6--8--6--8-6---|
A|-4--6--4--6--4-6---6--6--6--6--6-6---|
E|----4-----4----4------4-----4----4---|

e|-------------------------------------|
B|-------------------------------------|
G|-6-----6-----6-----8-----8-----8-----|
D|-6--6--6--6--6-6---8--6--8--6--8-6---|
A|-4--6--4--6--4-6---6--6--6--6--6-6---|
E|----4-----4----4------4-----4----4---|

e|-------------------------------------|
B|-------------------------------------|
G|-6-----6-----6-----8-----8-----8-----|
D|-6--6--6--6--6-6---8--6--8--6--8-6---|
A|-4--6--4--6--4-6---6--6--6--6--6-6---|
E|----4-----4----4------4-----4----4---|

e|----------|
B|----------|
G|----6-----|
D|-4--6--6--|
A|-4--4--6--|
E|-2-----4--|

Instrumental: (Guitar 1 w/ Distortion)
e|------------------|
B|------------------|
G|----6----------6--|
D|-4--6--6----4--6--|
A|-4--4--6----4--4--|
E|-2-----4----2-----|

Guitar Solo: (Guitar 1 w/ Distortion (Rhythm Guitar))
e|-------------------------------| 
B|-------------------------------| 
G|--------------------------6----| (x8)
D|-6-6-6-6-6-6-6-6-6----4---6----| 
A|-6-6-6-6-6-6-6-6-6----4---4----| 
E|-4-4-4-4-4-4-4-4-4----2--------|

e|-------------------------------------|
B|-------------------------------------|
G|-6-----6-----6-----8-----8-----8-----|
D|-6--6--6--6--6-6---8--6--8--6--8-6---|
A|-4--6--4--6--4-6---6--6--6--6--6-6---|
E|----4-----4----4------4-----4----4---|

e|-------------------------------------|
B|-------------------------------------|
G|-6-----6-----6-----8-----8-----8-----|
D|-6--6--6--6--6-6---8--6--8--6--8-6---|
A|-4--6--4--6--4-6---6--6--6--6--6-6---|
E|----4-----4----4------4-----4----4---|

Guitar Solo: (Guitar 2 w/ Distortion (Lead Guitar))                                                
e|----------------------------------------------|
B|----------------------------------------------|
G|-10-13---13-15-11-13------11-10---10-11-8-10--| (x2)
D|----------------------------------------------|
A|----------------------------------------------|
E|----------------------------------------------|
							      
e|--------------------------------------------------------------|
B|--------------------------------------------------------------|
G|-9p8p6-9p8p6-9p8p6-9p6---11p9p8-11p9p8-11p9p8-11p9p8-11p8-----| (x2)
D|-----------------------8----------------------------------10--|
A|--------------------------------------------------------------|
E|--------------------------------------------------------------|

Interlude: (Piano notes converted for Guitar 2 w/ No Distortion)
e|-------------------------------------------------------|
B|-------------------------------------------------------|
G|-6--8-----6--6--8-----6--8-----6--6--8-----------------|
D|-6--8--6--6--6--8--6--6--8--6--6--6--8-----------------|
A|-4--6--6--4--4--6--6--4--6--6--4--4--6-----------------|
E|-------4-----------4--------4-----------(Let-It-Ring)--|

Ending: (Guitar 1 & 2 w/ Distortion)
e|-------------------------------| 
B|-------------------------------| 
G|--------------------------6----| 
D|-6-6-6-6-6-6-6-6-6----4---6----| 
A|-6-6-6-6-6-6-6-6-6----4---4----| 
E|-4-4-4-4-4-4-4-4-4----2--------|

e|-------------------------------| 
B|-------------------------------| 
G|--------------------------6----| 
D|-6-6-6-6-6-6-6-6-6----4---6----| 
A|-6-6-6-6-6-6-6-6-6----4---4----| 
E|-4-4-4-4-4-4-4-4-4----2--------|

e|-------------------------------| 
B|-------------------------------| 
G|--------------------------6----| 
D|-6-6-6-6-6-6-6-6-6----4---6----| 
A|-6-6-6-6-6-6-6-6-6----4---4----| 
E|-4-4-4-4-4-4-4-4-4----2--------|

e|-------------------------------| 
B|-------------------------------| 
G|--------------------------6----| 
D|-6-6-6-6-6-6-6-6-6----4---6----| 
A|-6-6-6-6-6-6-6-6-6----4---4----| 
E|-4-4-4-4-4-4-4-4-4----2--------|

[Instrumental from here on out.]

e|-------------------------------| 
B|-------------------------------| 
G|--------------------------6----| 
D|-6-6-6-6-6-6-6-6-6----4---6----| 
A|-6-6-6-6-6-6-6-6-6----4---4----| 
E|-4-4-4-4-4-4-4-4-4----2--------|

e|-------------------------------| 
B|-------------------------------| 
G|--------------------------6----| 
D|-6-6-6-6-6-6-6-6-6----4---6----| 
A|-6-6-6-6-6-6-6-6-6----4---4----| 
E|-4-4-4-4-4-4-4-4-4----2--------|
Comments