Green Day - Jesus Of Suburbia Chords & Tabs

 

Jesus Of Suburbia Chords & Tabs

Green Day Chords & Tabs

Version: 1 Type: Tab 2 ratings
1 star 2 stars 3 stars 4 stars 5 stars
comments

Jesus Of Suburbia Tab

   
Song :jesus of suburbia
Artist:Green Day
tabbed by:mb1010
I. Jesus of Suburbia

Verse:
e|-------------------------------------------------------|
b|-------------------------------------------------------|
G|-6-6-6-6-----------------------------------------------|
d|-6-6-6-6---8-8-8-8---4-4-4-4-4-4-4-4--6-6-6-6-6-6-6-6-6|
A|-4-4-4-4---8-8-8-8---4-4-4-4-4-4-4-4--6-6-6-6-6-6-6-6-6|
E|-----------6-6-6-6---2-2-2-2-2-2-2-2--4-4-4-4-4-4-4-4-4|

Chorus:
e|--------------------------------|
b|--------------------------------|
G|--------------------------------|
d|--4-4-4-4-4-4-4---6-6-6-6-6-6-6-|
a|--4-4-4-4-4-4-4---6-6-6-6-6-6-6-|
E|--2-2-2-2-2-2-2---4-4-4-4-4-4-4-|

Bridge:
e|-------------------------|
b|-------------------------|
g|-6-6---------------------|
d|-6-6--6-6-6-4-4-4-4-4-4-4|
a|-4-4--6-6-6-4-4-4-4-4-4-4|
E|------4-4-4-2-2-2-2-2-2-2|

outro:
e|----------------------------------|
b|----------------------------------|
g|6-6-6-6---------------------------|
d|6-6-6-6---3-3-3-3--8-8-8-6-6-6-4--|
a|4-4-4-4---3-3-3-3--8-8-8-6-6-6-4--|
E|----------1-1-1-1--6-6-6-4-4-4-2--|

II.City of the Damned

e|-------------------|
b|-------------------|
g|-------------------|
d|-4------/6---------|
a|-4------/6---------|
E|-2------/4---------|

Verse:
e|---------------------------------|
b|---------------------------------|
g|-6---6---------------------------|
d|-6---6---8---6---4-4-4-4-6-6-6-6-|
a|-4---3---8---6---4-4-4-4-6-6-6-6-|
E|---------6---4---2-2-2-2-4-4-4-4-|

Chorus:
e|---------------------------------|
b|---------------------------------|
g|---------6-----------------------|
d|-8---6---6---4---8---6---4-------|
a|-8---6---4---4---8---6---4-------|
E|-6---4-------2---6---4---2-------|


III.I don't Care

Intro:
e|-------------------------|
b|-------------------------|
g|----6-----6-----6--------|
d|-6--6--6--6--6--6--------|
a|-6--4--6--4--6--4--------|
E|-4-----4-----4-----------|

Intro Lead:
e|-----------------------------------------|
b|-------------------6-----7-7-77-6------9v|
g|-------6-6-6--------8-6----------8-6-8---|
d|-6-6-66-----6-6-66-----------------------|
a|-----------------------------------------|
E|-----------------------------------------|
[ Tab from: http://www.guitartabs.cc/tabs/g/green_day/jesus_of_suburbia_tab.html ]
Riff 1:
                          6x
e|---------|---------------|
b|---------|---------------|
g|---------|--6------------|
d|-4-6-----|--6-----7-6----|
a|-4-6-----|--4-----7-6----|
E|-2-4-----|--------5-4----|

Verse:
e|------------------------|
b|------------------------|
g|--------(bass)----------|
d|------------------7-6---|
a|-4-4-4-4-4-4-4-4--7-6---|
E|------------------5-4---|

Chorus:
e|------------------------|
b|------------------------|
g|--------6---------------|
d|--4--6--6-6-----4---6---|
a|--4--6--4-6-----4---6---|
E|--2--4----4-----2---4---|

Riff 2:
e|------------|
b|------------|
g|--------6---|
d|-4-6----6---|
a|-4-6----4---|
E|-2-4--------|

Outro:
e|-------------|
b|-------------|
g|-6-6-6-66----|
d|-6-6-6-66--6-|
a|-4-4-4-44--6-|
E|-----------4-|

IV.Dearly Beloved

(palm mute all)    6x
e|-------------------|
b|-------------------|
g|----5---6-------8--|
d|-6--5---6---6---8--|
a|-6--3---4---6---6--|
E|-4----------4------|

V. Tales Of Anther Broken Home

Intro:
e|-----------------------|
b|-----------------------|
g|------(bass)-----------|
d|-6-----------4---6--4--|
a|-6-----------4---6--4--|
E|-4-4-4-4-4-4-2---4--2--|

Main Riff:
e|-----------------------|
b|-----------------------|
g|--------------------6--|
d|-6-6-6-6-6-6-6-6-4--6--|
a|-6-6-6-6-6-6-6-6-4--4--|
E|-4-4-4-4-4-4-4-4-2-----|

Chorus:
e|------------------------|
b|------------------------|
g|-6---6---6---8---8---8--|
d|-6-6-6-6-6-6-8-6-8-6-8-6|
a|-4-6-4-6-4-6-6-6-6-6-6-6|
E|---4---4---4---4---4---4|

Solo 1:
e|-----------------------------------------|
b|-----------------------------------------|
g|-10-13--13-15-11-13---11-10-10-11-8-10---|
d|-----------------------------------------|
a|-----------------------------------------|
E|-----------------------------------------|

solo 2:
e|---------------------------------------------|
b|---7p6--9p6--7p6--9p6--7p6-9p6---------------|
g|------6----6----6----6----6------------------|
d|---------------------------------------------|   
a|---------------------------------------------|
E|---------------------------------------------|


e|---------------------------------------------|
b|---9p8--11p8--9p8--11p8--11p8----------------|
g|------8-----8----8-----8-----8---------------|
d|---------------------------------------------| 
a|---------------------------------------------|
E|---------------------------------------------|











Comments