Green Day - Jesus Of Suburbia Chords & Tabs

 

Jesus Of Suburbia Chords & Tabs

Green Day Chords & Tabs

Version: 3 Type: Bass Tab 0 ratings
1 star 2 stars 3 stars 4 stars 5 stars
comments

Jesus Of Suburbia Bass Tab

Song: Jesus Of Suburbia
Band: Green Day
Album: American Idiot
Bassist: Mike Dirnt
Tabbed by: Nodnud
Tuning: Standard Tuning (GDAE)
I'm pretty sure this is 100% correct. If there's any problems or corrections, please 
me at i_am_a_giant_fish@hotmail.com
Please rate, thanks!

1) Jesus Of Suburbia

Riff 1
[----------------------------------------------------------------|
[---------------------------------------------------------------|
[-4-4-4-4---1-1-1-1----------------------------------------------|
[---------------------222222222222222222/444444444444444444------|
X2

Riff 2
[----------------------------------------------------------------|
[----------------------------------------------------------------|
[----------------------------------------------------------------|
[-2-2-2222-44444444-2-2-2222-44444444-2-2-2222-44444-------------|
x1

Riff 3
[----------------------------------------------------------------|
[----------------------------------------------------------------|
[-4-4-4----------------------------------------------------------|
[-------4-4-4-2-2222222------------------------------------------|
x2

Riff 1 X2
Riff 2 X1
Riff 3 X2
Riff 1 X1

then..
[----------------------------------------------------------------|
[----------------------------------------------------------------|
[-4-4-4-4-------------1-1-1--------------------------------------|
[-----------1-1-1-1-----------4-4-4-2~------4~-------------------|

2) City Of The Damned
(There isn't actually any bass in riff 1 I don't think, but it still sounds good with this)

Riff 1
[-----------------------------------------------------------------|
[-----------------------------------------------------------------|
[-44444-33333-11111-----------------------------------------------|
[-------------------44444-2-2-2-2-2-2-2-2--4-4-4-4-4-4-4-4--------|
x2

Riff 2
[-----------------------------------------------------------------|
[-----------------------------------------------------------------|
[-11111-------44444-------1-1-1-1---------------------------------|
[-------44444-------22222---------4-4-4-4-2-2-2-2-2-2-2-2---------|
X2

Riff 1 X2
Riff 2 X1

Then..
[--------------------------------------------------------------------------------|
[--------------------------------------------------------------------------------|
[-11111-------44444-------1-1-1-1------------------------------------------------|
[-------44444-------22222---------4-4-4-4-222222222222/141414141414141414141414\-|

3) I Don't Care
[-----------------------------------------------------------------|
[-----------------------------------------------------------------|
[------4-4-4------4-4-4------4-4-4--------------------------------|
[-4-44-------4-44-------2-22-------4-4-4-4444---------------------|
X5

[-----------------------------------------------------------------|
[-----------------------------------------------------------------|
[-----------------------------------------------------------------|
[-2-4-------------------------------------------------------------|
x1

[-----------------------------------------------------------------|
[-----------------------------------------------------------------|
[-4-4-44-4-44-4-4-------------------------------------------------|
[------------------5-4--------------------------------------------|
X12

[-----------------------------------------------------------------|
[-----------------------------------------------------------------|
[--------------4--------------------------------------------------|
[-22222222-4444--4------------------------------------------------|
X3

[-----------------------------------------------------------------|
[-----------------------------------------------------------------|
[-----------------------------------------------------------------|
[-22222222-444424-------------------------------------------------|

[-----------------------------------------------------------------|
[-----------------------------------------------------------------|
[-4-4-44-4-44-4-4-------------------------------------------------|
[------------------4-2--------------------------------------------|
x4

[-----------------------------------------------------------------|
[-----------------------------------------------------------------|
[-4-4-4-4---------------------------------------------------------|
[---------444~----------------------------------------------------|
[ Tab from: http://www.guitartabs.cc/tabs/g/green_day/jesus_of_suburbia_btab_ver_3.html ]
4) Dearly Beloved
[-----------------------------------------------------------------|
[----------------------------------------------------------------|
[-----------------------------------------------------------------|
[-444444444444444444444444----------------------------------------|
X1

[------------------------------------------------------------------|
[-----------------------------------------------------------------|
[----------33333333-44444444------6666-----------------------------|
[-44444444-------------------4444----------------------------------|
X5

[----------------------------------------------------------------|
[---------------------------------------------------------------|
[----------------------------------------------------------------|
[-44444444-------------------------------------------------------|


5) Tales Of Another Broken Home
[----------------------------------------------------------------|
[---------------------------------------------------------------|
[--------------4-------------------------------------------------|
[-4-44-44-44-2---------------------------------------------------|
x4

[----------------------------------------------------------------|
[---------------------------------------------------------------|
[----------------4-----------------------------------------------|
[-4-44-44-44-4-2-------------------------------------------------|
x7

[----------------------------------------------------------------|
[---------------------------------------------------------------|
[----------------------------------------------------------------|
[-4-44-44-44-4-2-------------------------------------------------|

[----------------------------------------------------------------|
[---------------------------------------------------------------|
[-4---4---4---6---6---6------------------------------------------|
[---4---4---4---4---4---4----------------------------------------|
x2

[----------------------------------------------------------------|
[---------------------------------------------------------------|
[----------------4-----------------------------------------------|
[-4-44-44-44-4-2-------------------------------------------------|
x7

[----------------------------------------------------------------|
[---------------------------------------------------------------|
[----------------------------------------------------------------|
[-4-44-44-44-4-2-------------------------------------------------|

[----------------------------------------------------------------|
[---------------------------------------------------------------|
[-4---4---4---6---6---6------------------------------------------|
[---4---4---4---4---4---4----------------------------------------|
x4

[----------------------------------------------------------------|
[---------------------------------------------------------------|
[--------------4-------------------------------------------------|
[-4-44-44-44-2---------------------------------------------------|
x2

[----------------------------------------------------------------|
[---------------------------------------------------------------|
[----------------4-----------------------------------------------|
[-4-44-44-44-4-2-------------------------------------------------|
x7

[----------------------------------------------------------------|
[---------------------------------------------------------------|
[----------------------------------------------------------------|
[-4-44-44-44-4-2-------------------------------------------------|

[----------------------------------------------------------------|
[---------------------------------------------------------------|
[-4---4---4---6---6---6------------------------------------------|
[---4---4---4---4---4---4----------------------------------------|
x2

PIANO INTERLUDE

[----------------------------------------------------------------|
[---------------------------------------------------------------|
[----------------4-----------------------------------------------|
[-4-44-44-44-4-2-------------------------------------------------|
x4

[----------------------------------------------------------------|
[---------------------------------------------------------------|
[--------------4-------------------------------------------------|
[-4-44-44-44-2---------------------------------------------------|
x2

[----------------------------------------------------------------|
[---------------------------------------------------------------|
[----------------------------------------------------------------|
[-4-(hold note)--------------------------------------------------|

If you play the way I've tabbed it, it should take you through the entire song.
Please Rate! Thanks
Comments