Green Day - Jesus Of Suburbia Chords & Tabs

 

Jesus Of Suburbia Chords & Tabs

Green Day Chords & Tabs

Version: 1 Type: Bass Tab 0 ratings
1 star 2 stars 3 stars 4 stars 5 stars
comments

Jesus Of Suburbia Bass Tab

   
Song:  Jesus of Surburbia.
Band:  Green Day
Album: American Idiot
Tuning: E-A-D-G

              Intro
G-----------------------------|
D-----------------------------|
A---4-4-4-4-----1-1-1-1-------|
E-----------------------------|

              Verse
G-----------------------------------------|
D-----------------------------------------|
A-----------------------------------------|
E-2222222222222--444444444444-------------|


    Verse(same as intro)
G-----------------------------|
D-----------------------------|
A---4-4-4-4-----1-1-1-1-------|
E-----------------------------|


                  Verse
G-----------------------------------------|
D-----------------------------------------|
A-----------------------------------------|
E-2222222222222--444444444444-------------|
[ Tab from: http://www.guitartabs.cc/tabs/g/green_day/jesus_of_suburbia_btab.html ]
                  Chorus
G------------------------------------------------|
D------------------------------------------------|       x3
A------------------------------------------------|
E-----2-2-222----4-4-444444----------------------|

G-----------------------------|
D-----------------------------|  x2
A--4--4-----------------------|
E--------3-4--2222222---------|

That's the whole song,just jesus of surburbis, just repeat the whole thing again.
Then it goes into City of the Damned,but right before the end it does a different
variation of the verse here it is
G-----------------------------|
D-----------------------------|
A---4-4-4-4-----1-1-1-1-------|
E-----------------------------|

G-----------------------------|
D-----------------------------|
A---4-4-4-4-------------------|
E----------------1-1-1-1------|

Now that's all.Guess that was call the outro.
Comments