Green Day - Jaded Chords & Tabs

 

Jaded Chords & Tabs

Green Day Chords & Tabs

Version: 4 Type: Tab 0 ratings
1 star 2 stars 3 stars 4 stars 5 stars
comments

Jaded Tab

   
intro
e|-------------------|
B|-------------------|
G|--------------4----|
D|-6-6-6----4-4-4--4-|x4
A|-6-6-6----4-4-2--4-|
E|-4-4-4-0--2-2----2-|

verse
e|-------------------|
B|-------------------|
G|--------------4----|
D|-6-6-6----4-4-4--4-|x8
A|-6-6-6----4-4-2--4-|
E|-4-4-4-0--2-2----2-|

chorus
e|----------------------------------------------------|
B|----------------------------------------------------|
G|-6-6-6-6-6-6-6-6-6-6-6-6-6-6-6-6---------------4----|
D|-6-6-6-6-6-6-6-6-6-6-6-6-6-6-6-6--6-6-6----4-4-4--4-|
A|-4-4-4-4-4-4-4-4-4-4-4-4-4-4-4-4--6-6-6----4-4-2--4-|
E|----------------------------------4-4-4-0--2-2----2-|
[ Tab from: http://www.guitartabs.cc/tabs/g/green_day/jaded_tab_ver_4.html ]
e|----------------------------------------------------|
B|----------------------------------------------------|
G|--------------4-----6-6-6-6-6-6-6-6-6-6-6-6-6-6-6-6-|
D|-6-6-6----4-4-4--4--6-6-6-6-6-6-6-6-6-6-6-6-6-6-6-6-|
A|-6-6-6----4-4-2--4--4-4-4-4-4-4-4-4-4-4-4-4-4-4-4-4-|
E|-4-4-4-0--2-2----2----------------------------------|

e|---------------------------------|
B|---------------------------------|
G|-8-8-8-8-8-8-8-8-8-8-8-8-8-8-8-8-|
D|-8-8-8-8-8-8-8-8-8-8-8-8-8-8-8-8-|
A|-6-6-6-6-6-6-6-6-6-6-6-6-6-6-6-6-|
E|---------------------------------|

then the verse again

then the chorus

then intro

i saw not too many people have done this
song so i thought that i would do it so
hope its alright
David"!"!"!1213
Comments