Green Day - Jaded Chords & Tabs

 

Jaded Chords & Tabs

Green Day Chords & Tabs

Version: 1 Type: Tab 10 ratings
1 star 2 stars 3 stars 4 stars 5 stars
comments

Jaded Tab

   
BAND: GREEN DAY
SONG: "JADED"
ALBUM: INSOMNIAC/INTERNATIONAL SUPERHITS!
TUNING: STANDARD (EADGBE)

/ = Slide down

*Distortion*

INTRO:
E|--------------------------
B|--------------------------
G|--------------------------
D|---------------7----------
A|-7--7--7-7-5-5-5-7--7-7-7-
E|-5--5--5-5-3-3---5--5-5-5-

E|-------------------------------------------------------------
B|-------------------------------------------------------------
G|-------------------------------------------------------------
D|----------7-------------------7-------------------7----------
A|--7-7-5-5-5-7--7-7-7--7-7-5-5-5-7--7-7-7--7-7-5-5-5-7--7-7-7-
E|--5-5-3-3---5--5-5-5--5-5-3-3---5--5-5-5--5-5-3-3---5--5-5-5-

VERSE ONE:
E|--------------------------------------------------------------------
B|--------------------------------------------------------------------
G|--------------------------------------------------------------------
D|----------7-------------------7-------------------7-----------------
A|--7-7-5-5-5-7--7-7-7--7-7-5-5-5-7--7-7-7--7-7-5-5-5-7--7-7-7--7-7-7-
E|--5-5-3-3---5--5-5-5--5-5-3-3---5--5-5-5--5-5-3-3---5--5-5-5--5-5-5-

E|--------------------------------------------------------------------
B|--------------------------------------------------------------------
G|--------------------------------------------------------------------
D|----------7-------------------7-------------------7-----------------
A|--7-7-5-5-5-7--7-7-7--7-7-5-5-5-7--7-7-7--7-7-5-5-5-7--7-7-7--7-7-7-
E|--5-5-3-3---5--5-5-5--5-5-3-3---5--5-5-5--5-5-3-3---5--5-5-5--5-5-5-

CHORUS:
E|-------------------------------------------------------------------
B|-------------------------------------------------------------------
G|-------------------------------------------------------------------
D|-7-7-7-7-7-7-7-7-7-7-7-7-7-7-7-7-----------------------------------
A|-5-5-5-5-5-5-5-5-5-5-5-5-5-5-5-5-7-7--7-7-5-5-7-7-7-7--7-7-5-5-7-7-
E|---------------------------------5-5--5-5-3-3-5-5-5-5--5-5-3-3-5-5-

E|-----------------------------------------------------------------
B|-----------------------------------------------------------------
G|-----------------------------------------------------------------
D|-7-7-7-7-7-7-7-7-7-7-7-7-7-7-7-7-9-9-9-9-9-9-9-9-9-9-9-9-9-9-9-9-
A|-5-5-5-5-5-5-5-5-5-5-5-5-5-5-5-5-7-7-7-7-7-7-7-7-7-7-7-7-7-7-7-7-
E|-----------------------------------------------------------------

FILL:
E|----------------------------------------
B|----------------------------------------
G|----------------------------------------
D|--------------7-------------------7-----
A|-7-7--7-7-5-5-5-7--7-7-7--7-7-5-5-5-7-7-
E|-5-5--5-5-3-3---5--5-5-5--5-5-3-3---5-5-

VERSE TWO:
E|--------------------------------------------------------------------
B|--------------------------------------------------------------------
G|--------------------------------------------------------------------
D|----------7-------------------7-------------------7-----------------
A|--7-7-5-5-5-7--7-7-7--7-7-5-5-5-7--7-7-7--7-7-5-5-5-7--7-7-7--7-7-7-
E|--5-5-3-3---5--5-5-5--5-5-3-3---5--5-5-5--5-5-3-3---5--5-5-5--5-5-5-
[ Tab from: http://www.guitartabs.cc/tabs/g/green_day/jaded_tab.html ]
E|--------------------------------------------------------------------
B|--------------------------------------------------------------------
G|--------------------------------------------------------------------
D|----------7-------------------7-------------------7-----------------
A|--7-7-5-5-5-7--7-7-7--7-7-5-5-5-7--7-7-7--7-7-5-5-5-7--7-7-7--7-7-7-
E|--5-5-3-3---5--5-5-5--5-5-3-3---5--5-5-5--5-5-3-3---5--5-5-5--5-5-5-

CHORUS:
E|-------------------------------------------------------------------
B|-------------------------------------------------------------------
G|-------------------------------------------------------------------
D|-7-7-7-7-7-7-7-7-7-7-7-7-7-7-7-7-----------------------------------
A|-5-5-5-5-5-5-5-5-5-5-5-5-5-5-5-5-7-7--7-7-5-5-7-7-7-7--7-7-5-5-7-7-
E|---------------------------------5-5--5-5-3-3-5-5-5-5--5-5-3-3-5-5-

E|-----------------------------------------------------------------
B|-----------------------------------------------------------------
G|-----------------------------------------------------------------
D|-7-7-7-7-7-7-7-7-7-7-7-7-7-7-7-7-9-9-9-9-9-9-9-9-9-9-9-9-9-9-9-9-
A|-5-5-5-5-5-5-5-5-5-5-5-5-5-5-5-5-7-7-7-7-7-7-7-7-7-7-7-7-7-7-7-7-
E|-----------------------------------------------------------------

FILL:
E|------------------------------------------------------------------------
B|------------------------------------------------------------------------
G|------------------------------------------------------------------------
D|--------------7-------------------7-------------------7-----------------
A|-7-7--7-7-5-5-5-7--7-7-7--7-7-5-5-5-7--7-7-7--7-7-5-5-5-7--7-7-7--7-7-7-
E|-5-5--5-5-3-3---5--5-5-5--5-5-3-3---5--5-5-5--5-5-3-3---5--5-5-5--5-5-5-

E|------------------------------------------------------------------------
B|------------------------------------------------------------------------
G|------------------------------------------------------------------------
D|--------------7-------------------7-------------------7-----------------
A|-7-7--7-7-5-5-5-7--7-7-7--7-7-5-5-5-7--7-7-7--7-7-5-5-5-7--7-7-7--7-7-7-
E|-5-5--5-5-3-3---5--5-5-5--5-5-3-3---5--5-5-5--5-5-3-3---5--5-5-5--5-5-5-

CHORUS:
E|-------------------------------------------------------------------
B|-------------------------------------------------------------------
G|-------------------------------------------------------------------
D|-7-7-7-7-7-7-7-7-7-7-7-7-7-7-7-7-----------------------------------
A|-5-5-5-5-5-5-5-5-5-5-5-5-5-5-5-5-7-7--7-7-5-5-7-7-7-7--7-7-5-5-7-7-
E|---------------------------------5-5--5-5-3-3-5-5-5-5--5-5-3-3-5-5-

E|-----------------------------------------------------------------
B|-----------------------------------------------------------------
G|-----------------------------------------------------------------
D|-7-7-7-7-7-7-7-7-7-7-7-7-7-7-7-7-9-9-9-9-9-9-9-9-9-9-9-9-9-9-9-9-
A|-5-5-5-5-5-5-5-5-5-5-5-5-5-5-5-5-7-7-7-7-7-7-7-7-7-7-7-7-7-7-7-7-
E|-----------------------------------------------------------------

ENDING:
E|------------------------------------------------------------------------------
B|------------------------------------------------------------------------------
G|------------------------------------------------------------------------------
D|--------------7-------------------7-------------------7--------------7--------
A|-7-7--7-7-5-5-5-7--7-7-7--7-7-5-5-5-7--7-7-7--7-7-5-5-5-7--7-7-7-5-5-5-7-7/---
E|-5-5--5-5-3-3---5--5-5-5--5-5-3-3---5--5-5-5--5-5-3-3---5--5-5-5-3-3---5-5/---


Comments