Green Day - Jaded Chords & Tabs

 

Jaded Chords & Tabs

Green Day Chords & Tabs

Version: 6 Type: Bass Tab 0 ratings
1 star 2 stars 3 stars 4 stars 5 stars
comments

Jaded Bass Tab

This song is actually in a step down tuning since it follows Brain Strew on 
Insomniac, which is also in this tuning.

Intro/Verse
G-------------------------------------|x9
D-------------------------------------|
A--------55---------------------------|
E-55-533------------------------------|

Pre-Chorus
G-----------------|x1
D-----------------|
A-----------------|
E-55555555--------|

Chorus
G----------------------------------------------------------------|
D----------------------------------------------------------------|
A-5555555555555555-----------------------------------------------|
E------------------55-53-3-3-55-53-3-3---------------------------|

G----------------------------------------------------------------|
D----------------------------------------------------------------|
A-5555555555555555-777777777777-5-4-3----------------------------|
E----------------------------------------------------------------|

[ Tab from: http://www.guitartabs.cc/tabs/g/green_day/jaded_btab_ver_6.html ]
Verse
G-------------------------------------|x9
D-------------------------------------|
A--------55---------------------------|
E-55-533------------------------------|

Pre-Chorus
G-----------------|x1
D-----------------|
A-----------------|
E-55555555--------|

Chorus
G----------------------------------------------------------------|
D----------------------------------------------------------------|
A-5555555555555555-----------------------------------------------|
E------------------55-53-3-3-55-53-3-3---------------------------|

G----------------------------------------------------------------|
D----------------------------------------------------------------|
A-5555555555555555-777777777777-5-4-3----------------------------|
E----------------------------------------------------------------|

Bridge 
repeat the Verse riff until you come back to the chorus.

Repeat Chorus

Outro
G-------------------------------------|x3
D-------------------------------------|
A--------55---------------------------|
E-55-533------------------------------| 

G-------------------------------------|
D-------------------------------------|
A-------------------------------------|
E-55-533-5----------------------------|



Peace!!
Comments