Green Day - Jaded Chords & Tabs

 

Jaded Chords & Tabs

Green Day Chords & Tabs

Version: 3 Type: Bass Tab 0 ratings
1 star 2 stars 3 stars 4 stars 5 stars
comments

Jaded Bass Tab

   1Bar
G|-----------|
D|-----------|
A|------4----|
E|-4442------|

  Repeat a bunch
G|---------------|
D|---------------|
A|--------4------|
E|-24442---------|
[ Tab from: http://www.guitartabs.cc/tabs/g/green_day/jaded_btab_ver_3.html ]
    Bridge
G|-------------------|------------------------|
D|-------------------|------------------------|
A|-----------2-3-4---|44-44-44-44-44-4444-44--|
E|-2-44-44-4---------|------------------------|

G|----------------|-------------------------------------|
D|----------------|-------------------------------------|
A|----------------|44-44-44-44-44-44-44-45-66-66-66-66--|
E|-44-4-2-44------|-------------------------------------|
                                                        Back to the start!


       This song is easy but fast!!!! Have fun:P
Comments