Green Day - Jaded Chords & Tabs

 

Jaded Chords & Tabs

Green Day Chords & Tabs

Version: 2 Type: Bass Tab 0 ratings
1 star 2 stars 3 stars 4 stars 5 stars
comments

Jaded Bass Tab

Song Title: Jaded
Artist: Green Day
----------------------------------------------

Jaded
Off Green Day's shittiest cd Insomniac

Intro\Verse
---------------------------------------------------------------
---------------------------------------------------------------
------------------5--5-----------------------------------------
---5--5--5--3--3-----------------------------------------------

Chorus
---------------------------------------------------------------
---------------------------------------------------------------
---------------------------------------------------------------
---5--5--5--5--5--5--5--5--5--5--5--5--5--5--5--5--5--5--3--5--
[ Tab from: http://www.guitartabs.cc/tabs/g/green_day/jaded_btab_ver_2.html ]
---------------------------------------------------------------
---------------------------------------------------------------
---------------------------------------------------------------
---5--5--5--3--5--5--5--5--5--5--5--5--5--5--5--5--5--5--5--5--

---------------------------------------------------------------
---------------------------------------------------------------
---------------------------------------------------------------
---5--7--7--7--7--7--7--7--7--7--7--7--7-----------------------

There it is. easy but very fast
e-mail me any corrections but dont send me any wrong ones or bitch at me.
BassManRob@aol.com


Submitted by:  Rob Da Bass Masta (BassManRob)

Comments