Green Day - Jaded Chords & Tabs

 

Jaded Chords & Tabs

Green Day Chords & Tabs

Version: 1 Type: Bass Tab 0 ratings
1 star 2 stars 3 stars 4 stars 5 stars
comments

Jaded Bass Tab

Song: Jaded
Artist: Green Day
Album: Insomniac

This time I decided to put the tab in standard tuning since everyone knows you can play 
this tuned to G D A E just by moving a step down. But since there's no need for this to 
be in Gb Db Ab Eb, so I'm going to put in the standard tuning.(Plus, now the chorus 
has the fills for it!)

Verse/Outro
G-----------------
D-----------------
A------------2h4--
E--4-4-4-2-2------

Pre-Chorus
G-----------------
D-----------------
A-----------------
E--4-4-4-4-4-4-4--
[ Tab from: http://www.guitartabs.cc/tabs/g/green_day/jaded_btab.html ]
Chorus(The fills are
G-----------------------------------------------------------------------------------
D-----------------------------------------------------------------------------------
A--4-4-4-4-4-4-6p4p3---------------------------------4-4-4-4-4-4-6-6-6-6-6-6p4p3----
E--------------------4--4-4-4-4--2--4--4-4-4-4--2--4-----------------------------4--


Verse X8
Pre-Chorus X1
Chorus X1
Verse X8
Pre-Chorus X1
Chorus X1
Verse X7
Chorus X1
Outro X4

This tab was created by Christian Mangs. Email me at:
Shadow145@hotmail.com

Comments