Green Day - J A R Chords & Tabs

 

J A R Chords & Tabs

Green Day Chords & Tabs

Version: 6 Type: Tab 0 ratings
1 star 2 stars 3 stars 4 stars 5 stars
comments

J A R Tab

Green Day  J.A.R.
Tune down  step

|-----|
|-3---|
|-2-2-|
|-0-2-|
|---0-|
|-----|


|-----------------------------------------------|
|------------------------------------3-3--------|
|------------2-2-2-2-2-2-------------2-2--2-2-2-|
|-5-5-5-5-5--2-2-2-2-2-2--5-5-5-5-5--0-0--2-2-2-|  6X
|-5-5-5-5-5--0-0-0-0-0-0--5-5-5-5-5-------0-0-0-|
|-3-3-3-3-3---------------3-3-3-3-3-------------|


|----------------------------------------------------------------
|----------------------3-3-3-3-3-3-3-3-3-3-----------------------
|----------------------2-2-2-2-2-2-2-2-2-2--2-2-2-2-2-2-2-2-2-2--
|-5-5-5-5-5-5-5-5-5-5--0-0-0-0-0-0-0-0-0-0--2-2-2-2-2-2-2-2-2-2--
|-5-5-5-5-5-5-5-5-5-5-----------------------0-0-0-0-0-0-0-0-0-0--
|-3-3-3-3-3-3-3-3-3-3--------------------------------------------

------------------------------------------------|
-------------3-3-3-3-3-3-3----------------------|
-------------2-2-2-2-2-2-2--2-2-2-2-2-2-2-2-2-2-|
--5-5-5-5-5--0-0-0-0-0-0-0--2-2-2-2-2-2-2-2-2-2-|
--5-5-5-5-5-----------------0-0-0-0-0-0-0-0-0-0-|
--3-3-3-3-3-------------------------------------|


|-------------------------------------------------------|
|--------3-3-3---------3-3-3---------3-3-3---------3----|
|--------2-2-2--2-2-2--2-2-2---------2-2-2--2-2-2--2--2-|
|-5-5-5--0-0-0--2-2-2--0-0-0--5-5-5--0-0-0--2-2-2--0--2-|
|-5-5-5---------0-0-0---------5-5-5---------0-0-0-----0-|
|-3-3-3-----------------------3-3-3---------------------|


|-----------------------------------------------|
|------------------------------------3-3--------|
|------------2-2-2-2-2-2-------------2-2--2-2-2-|
|-5-5-5-5-5--2-2-2-2-2-2--5-5-5-5-5--0-0--2-2-2-|4X
|-5-5-5-5-5--0-0-0-0-0-0--5-5-5-5-5-------0-0-0-|
|-3-3-3-3-3---------------3-3-3-3-3-------------|


|----------------------------------------------------------------
|----------------------3-3-3-3-3-3-3-3-3-3-----------------------
|----------------------2-2-2-2-2-2-2-2-2-2--2-2-2-2-2-2-2-2-2-2--
|-5-5-5-5-5-5-5-5-5-5--0-0-0-0-0-0-0-0-0-0--2-2-2-2-2-2-2-2-2-2--
|-5-5-5-5-5-5-5-5-5-5-----------------------0-0-0-0-0-0-0-0-0-0--
|-3-3-3-3-3-3-3-3-3-3--------------------------------------------

------------------------------------------------|
-------------3-3-3-3-3-3-3----------------------|
-------------2-2-2-2-2-2-2--2-2-2-2-2-2-2-2-2-2-|
--5-5-5-5-5--0-0-0-0-0-0-0--2-2-2-2-2-2-2-2-2-2-|
--5-5-5-5-5-----------------0-0-0-0-0-0-0-0-0-0-|
--3-3-3-3-3-------------------------------------|


|--------------------------------------------------------|
|--------3-3-3---------3-3-3---------3-3-3---------3-3-3-|
|--------2-2-2--2-2-2--2-2-2---------2-2-2--2-2-2--2-2-2-|
|-5-5-5--0-0-0--2-2-2--0-0-0--5-5-5--0-0-0--2-2-2--0-0-0-|2X
|-5-5-5---------0-0-0---------5-5-5---------0-0-0--------|
|-3-3-3-----------------------3-3-3----------------------|

[ Tab from: http://www.guitartabs.cc/tabs/g/green_day/j_a_r_tab_ver_6.html ]
|-------------------------------------------------------------
|-------------------------------3-3-3-3-3-3-3-----------------
|-5-5-5-5-5-5-5-----------------2-2-2-2-2-2-2--2-2-2-2-2-2-2--
|-5-5-5-5-5-5-5--5-5-5-5-5-5-5--0-0-0-0-0-0-0--2-2-2-2-2-2-2--
|-3-3-3-3-3-3-3--5-5-5-5-5-5-5-----------------0-0-0-0-0-0-0--
|----------------3-3-3-3-3-3-3--------------------------------
PM. . . . . . .  . . . . . . .  . . . . . . .  . . . . . . .

---------------------------------------------| |-----|
---------------------------------------------| |-3---|
-5-5-5-5-5-5-5-----------------2-2-2-2-2-2-2-| |-2-2-|
-5-5-5-5-5-5-5--5-5-5-5-5-5-5--2-2-2-2-2-2-2-| |-0-2-|
-3-3-3-3-3-3-3--5-5-5-5-5-5-5--0-0-0-0-0-0-0-| |---0-|
----------------3-3-3-3-3-3-3----------------| |-----|
 . . . . . . .  . . . . . . .  . . . . . . .   


|-----------------------------------------------2--0--2----0----
|-3--3-3-3-3-3-3----2--0----2-------3--3--3-3-3-3-----3-------3-
|------------------------------2--------------------------------
|---------------------------------------------------------------
|---------------------------------------------------------------
|---------------------------------------------------------------

-----------------------------------------------2---------------
-3--3-3-3-3-3-3----2--0----2-------3--3--3-3-3-3---------------
------------------------------2--------------------------------
---------------------------------------------------------------
---------------------------------------------------------------
---------------------------------------------------------------

-----------------------------------------------2--0--2----0----
-3--3-3-3-3-3-3----2--0----2-------3--3--3-3-3-3-----3-------3-
------------------------------2--------------------------------
---------------------------------------------------------------
---------------------------------------------------------------
---------------------------------------------------------------

---------------------------------------------------10--------10-------|
-3--3-3-3-3-3-3----2--0----2------3--3--3-3---------------10----10----|
------------------------------2--------------12^------12^----------12^|
----------------------------------------------------------------------|
----------------------------------------------------------------------|
----------------------------------------------------------------------|


|----------------------------------------------------------------
|----------------------3-3-3-3-3-3-3-3-3-3-----------------------
|----------------------2-2-2-2-2-2-2-2-2-2--2-2-2-2-2-2-2-2-2-2--
|-5-5-5-5-5-5-5-5-5-5--0-0-0-0-0-0-0-0-0-0--2-2-2-2-2-2-2-2-2-2--
|-5-5-5-5-5-5-5-5-5-5-----------------------0-0-0-0-0-0-0-0-0-0--
|-3-3-3-3-3-3-3-3-3-3--------------------------------------------

------------------------------------------------|
-------------3-3-3-3-3-3-3----------------------|
-------------2-2-2-2-2-2-2--2-2-2-2-2-2-2-2-2-2-|
--5-5-5-5-5--0-0-0-0-0-0-0--2-2-2-2-2-2-2-2-2-2-|
--5-5-5-5-5-----------------0-0-0-0-0-0-0-0-0-0-|
--3-3-3-3-3-------------------------------------|


|--------------------------------------------------------|
|--------3-3-3---------3-3-3---------3-3-3---------3-3-3-|
|--------2-2-2--2-2-2--2-2-2---------2-2-2--2-2-2--2-2-2-|
|-5-5-5--0-0-0--2-2-2--0-0-0--5-5-5--0-0-0--2-2-2--0-0-0-|2X
|-5-5-5---------0-0-0---------5-5-5---------0-0-0--------|
|-3-3-3-----------------------3-3-3----------------------|
Comments