Green Day - J A R Chords & Tabs

 

J A R Chords & Tabs

Green Day Chords & Tabs

Version: 1 Type: Tab 0 ratings
1 star 2 stars 3 stars 4 stars 5 stars
comments

J A R Tab

   
Green Day - J.A.R. (Jason Andrew Relva)

Tabbed by Sigbjorn01@gmx.net

Tune half step down: Eb Ab Db Gb Bb Eb

 G5            A5                G5            D5      A5
-----------------------------------------------2---0-0-2---0-0---
-3---3---3-3-3-3---2---0-2-2-2---3---3---3-3-3-3---3-3-2---2-2---
-0---0---0-0-0-2---2---2-2-2-2---0---0---0-0-0-------------------
-----------------------------------------------------------------
-----------------------------------------------------------------
-----------------------------------------------------------------
[ Tab from: http://www.guitartabs.cc/tabs/g/green_day/j_a_r_tab.html ]
 G5            A5                G5            D5      A5
-----------------------------------------------------------------
-3---3---3-3-3-3---2---0-2-2-2---3---3---3-3-3-3---3-3-----------
-0---0---0-0-0-2---2---2-2-2-2---0---0---0-0-0-2---2-2-2---2-2---
-----------------------------------------------0---0-0-2---2-2---
-------------------------------------------------------0---0-0---
-----------------------------------------------------------------

 G5            A5                G5            D5      A5
-----------------------------------------------2---0-0-2---0-0---
-3---3---3-3-3-3---2---0-2-2-2---3---3---3-3-3-3---3-3-2---2-2---
-0---0---0-0-0-2---2---2-2-2-2---0---0---0-0-0-------------------
-----------------------------------------------------------------
-----------------------------------------------------------------
-----------------------------------------------------------------

 G5            A5                G5            D5      
-------------------------------------------------10-10---10-10----
-3---3---3-3-3-3---2---0-2-2-2---3---3---3-3-----10-10---10-10----
-0---0---0-0-0-2---2---2-2-2-2---0---0---0-0-0-12b-----12b----12b-
------------------------------------------------------------------
------------------------------------------------------------------
------------------------------------------------------------------




Comments