Green Day - J A R Chords & Tabs

 

J A R Chords & Tabs

Green Day Chords & Tabs

Version: 1 Type: Bass Tab 1 rating
1 star 2 stars 3 stars 4 stars 5 stars
comments

J A R Bass Tab

song:J.A.R.
band:Green Day
from the soundtrack to the movie angus

intro/outro
g-----6-------6-------6-------6-------6---
d-4-4---4-------------------------4-4---4-
a---------4-4---4---------4-4---4---------
e-----------------4-4---4-----------------

verse(also during guitar solo)
g-------------------------------------------------
d-------------------------------------------------
a-5-------------------------------------5-5-------
e---5-3-3-3-3-3-5-5-5-5-5-5-5-3-3-3-3-3-----5-5-5-

chorus
g---------------------------------------------------------
d---------------------------------------------------------
a---------------------------------5-5-5-5-5-5-5-5-5-5-5-5-
e-3-3-3-3-3-3-3-3-3-3-3-3-3-3-3-3-------------------------
[ Tab from: http://www.guitartabs.cc/tabs/g/green_day/j_a_r_btab.html ]
chorus(cont.)
g-------------------------------------------------------
d-------------------------------------------------------
a-------------------------5-5-5-5-5---------------------
e-5-5-5-5-5-5-5-5-3-3-3-3-----------5-5-5-5-5-5-5-5-5-5-

post chorus
g-----------------------
d-----------------------
a-----5-5---5---5---5---
e-3-3-----5---3---5---5-

bridge
g------------------------------------------------------------------
d------------------------------------------------------------------
a----------------------------5-5-5-5-5-5-5-5-5-5-------------------
e-3-3-3-3-3-3-3-3-3-3--3-3-3---------------------3-3-3-3-3-3-3-3-3-

i dont know all the fills but its pretty accurate (i know the intro is
right)

tabed by nick
basspunk@hotmail.com

Comments