Green Day - In The End Chords & Tabs

 

In The End Chords & Tabs

Green Day Chords & Tabs

Version: 4 Type: Bass Tab 0 ratings
1 star 2 stars 3 stars 4 stars 5 stars
comments

In The End Bass Tab

   
Song:In the End
Band Green Day
Tabbed by:Sean Hannah
Email at:bassman1@rap.midco.net
Tuning: Eb Ab Db Gb(half a step down)
  
   drum counts in
   verse
G|------------------------|
D|-----7------------------|
A|------------------------|
E|-5555---33333-----------|

That's the entire verse.  All you have to do is play that alot.

chorus
G|----------------------------|
D|------------------7---------|
A|-55555-77777----------------|
E|--------------5555---22222--|
[ Tab from: http://www.guitartabs.cc/tabs/g/green_day/in_the_end_btab_ver_4.html ]
G|---------------------------------------|
D|-----------------7------------7--------|
A|-55555-77777---------------------------|
E|-------------5555---33333-5555--33333--|

interlude
G|-------------------|
D|-------------------|
A|---4--5---4--------|
E|--5-53--55-533333--|

final chorus
G|-------------------------------------|
D|-----------------9--7-------7--------|
A|--555555-777777----------------------|
E|------------------------5555---22222-|

G|-------------------|
D|-------------------|
A|----55555-77777----|
E|-------------------|


end
G|-----------------|
D|------7----------|
A|-----------------|
E|--5555--33333----|
play this 3x and end on A note

song order:
Verse
Chorus
Verse
Chorus
Interlude
Final Chorus
End
There you go!
Comments