Green Day - In The End Chords & Tabs

 

In The End Chords & Tabs

Green Day Chords & Tabs

Version: 2 Type: Bass Tab 0 ratings
1 star 2 stars 3 stars 4 stars 5 stars
comments

In The End Bass Tab

Song: In the End
Artist: Green Day
Album: Dookie

Verse
Gb-----------------------
Db-----------------------
Ab-----------------------
Eb--5-5-5-5-5-3-3-3-3-3--

Pre-Chorus
Gb--------------------
Db--------------------
Ab-----------------4--
Eb--5-5-5-5-5--5-7----

Chorus
Gb------------------------------------------------------------------------------------
Db-----------------------------7------7-----------------------------------------------
Ab--5-5-5-5-5-5-7-7-7-7-7-7----------------------------------5-5-5-5-5-5-7-7-7-7-7-7--
Eb---------------------------5----5-5-----5/2--2-2-2-2-2-2----------------------------

Bridge/Outro
Gb-----------------------
Db--------7--------------
Ab-----------------------
Eb--5-5-5---3-3-3-3-3-3--
[ Tab from: http://www.guitartabs.cc/tabs/g/green_day/in_the_end_btab_ver_2.html ]
Solo			      X7
Gb------------------------------|----------------------------------
Db------------------------------|----------------------------------
Ab----4------5------4---7-5-4-5-|----4------5-------------------4--
Eb--5---5--3---3--5---5---------|--5---5--3---3--5-5-5-5-5--5-7----

Final Chorus
Gb------------------------------------------------------------------------------------------
Db---------------------------9/11----7------7-----------------------------------------------
Ab--5-5-5-5-5-5-7-7-7-7-7-7----------------------------------------5-5-5-5-5-5-7-7-7-7-7-7--
Eb---------------------------------5----5-5-----5/2--2-2-2-2-2-2----------------------------


Verse X7
Pre-Chorus X1
Chorus X1
Bridge X2
Verse X7
Chorus X1
Bridge X4
Solo X1
Final Chorus X1
Outro X3


This tab was created by Christian Mangs. Email me at:
Bassman9@users.basstabarchive.com
Comments