Green Day - I Was There Chords & Tabs

 

I Was There Chords & Tabs

Green Day Chords & Tabs

Version: 2 Type: Tab 0 ratings
1 star 2 stars 3 stars 4 stars 5 stars
comments

I Was There Tab

                             GREEN DAY
                            I Was There  
                           1000 HOURS (LP)
                         Tabbed By Donkey Fly
                      (thedonkeyfly@hotmail.com)

This is a song from the '1000 hours' LP. It can be bought on Ebay or other shops. The
song can be downloaded from www.lookoutrecords.com, If it dont work , goto a search
engine and type in 'lookout records'.I noticed the other version doesnt have the intro
etc so im tabbing my own. Enjoy

Intro 

E|-----------------------------------------------------------------------||
B|--6-6-6-6-6-6-6-6--5-5-5-5-5-5-5-5--6-6-6-6-6-6-6-6--5-5-5-5-5-5-5-5---||
G|--5-5-5-5-5-5-5-5--5-5-5-5-5-5-5-5--3-3-3-3-3-3-3-3--3-3-3-3-3-3-3-3---||
D|-----------------------------------------------------------------------||
A|-----------------------------------------------------------------------||
E|-----------------------------------------------------------------------||

Verse

E|-----------------------------------------------------------------------||
B|-----------------------------------------------------------------------||
G|-5--5--5-5-5-5--5-5--5-5-5-5--3--3--3-3-3-3--3-3--3-3-3-3--------------||
D|-5--5--5-5-5-5--5-5--5-5-5-5--3--3--3-3-3-3--3-3--3-3-3-3--------------||
A|-3--3--3-3-3-3--3-3--3-3-3-3--1--1--1-1-1-1--1-1--1-1-1-1--------------||
E|-----------------------------------------------------------------------||
  and in the background this can be heard played throughout
E|-----------------------------------------------------------------------||
B|-----------------------------------------------------------------------||
G|---0---0---0-----0---0---0---------------------------------------------||
D|-2---2---2-----0---0---0-----------------------------------------------||
A|-----------------------------------------------------------------------||
E|-----------------------------------------------------------------------||

Chorus  (AKA CHORUS PT 1 FOR P2 OF SOLO)

E|-----------------------------------------------------------------------||
B|-----------------------------------------------------------------------||
G|-------------5--5-5--5-5-5-5--------------5--5-5--5-5-5-5--------------||
D|-3--3--3-3-3-5--5-5--5-5-5-5-3--3-3-3-3-3-5--5-5--5-5-5-5--------------||
A|-3--3--3-3-3-3--3-3--3-3-3-3-3--3-3-3-3-3-3--3-3--3-3-3-3--------------||
E|-1--1--1-1-1-----------------1--1-1-1-1-1------------------------------||
[ Tab from: http://www.guitartabs.cc/tabs/g/green_day/i_was_there_tab_ver_2.html ]
E|-----------------------------------------------------------------------||
B|-----------------------------------------------------------------------||
G|-3--3-3-3-3-3-3-3-3-3-3-3-3-3-3-5--5--5-5-5-5--5-5--5-5-5-5------------||
D|-3--3-3-3-3-3-3-3-3-3-3-3-3-3-3-5--5--5-5-5-5--5-5--5-5-5-5------------||
A|-1--1-1-1-1-1-1-1-1-1-1-1-1-1-1-3--3--3-3-3-3--3-3--3-3-3-3------------||
E|-----------------------------------------------------------------------||

Bridge

E|-----------------------------------------------------------------------||
B|-5--5-5-5-5-5-6-6-5-5-6-6-5-5-3--3-3-3-3-3-4-4-3-3-4-4-3-3-------------||
G|-5--5-5-5-5-5-5---5---5---5---3--3-3-3-3-3-3---3---3---3---------------||
D|-x--x-x-x-x-x-x---x---x---x---x--x-x-x-x-x-x---x---x---x---------------||
A|-3--3-3-3-3-3-3---3---3---3---1--1-1-1-1-1-1---1---1---1---------------||
E|-----------------------------------------------------------------------||

Solo
PT1
E|-----------------------------------------------------------------------||
B|----------13---------------13-------------11-----------11--------------||
G|-12----12----12---12----12-----12-10---10----10--10-10----10-----------||
D|----10---------------10--------------8----------8--8-------------------||
A|-----------------------------------------------------------------------||
E|-----------------------------------------------------------------------||

 then
PT2
E|-----------------------------------------------------------------------||
B|-----------------------------------------------------------------------||
G|-------0-----------0-----------0-----------0---------------------------||
D|-----4---4-------4---4-------4---4-------4---4-------------------------||
A|-5-5-------5-3-3-------3-5-5-------5-3-3-------3-----------------------||
E|-----------------------------------------------------------------------||
                                                                          |
Well that's the tab sorted out now for the lyrics and order of play       |
--------------------------------------------------------------------------|
ORDER OF PLAY                                                             |
--------------------------------------------------------------------------|
INTRO X 2                                                                 |
VERSE X 6                                                                 |
CHORUS X 2                                                                |
VERSE X 6                                                                 |
CHORUS X 2                                                                |
BRIDGE X 2                                                                |
SOLO  PT 1 X 4                                                            |  
SOLO PT 2 X 1                                                             |  
CHORUS PT 1 WITH SOLO PT 2 X 4                                            |
VERSE X 4                                                                 |
CHORUS X 4                                                                |
END ON C5                                                                 |
Comments