Green Day - I Want To Be On Tv Chords & Tabs

 

I Want To Be On Tv Chords & Tabs

Green Day Chords & Tabs

Version: 2 Type: Bass Tab 0 ratings
1 star 2 stars 3 stars 4 stars 5 stars
comments

I Want To Be On Tv Bass Tab

   
Band:  Green Day
Song:  I Want To Be On TV
Album:  Shenanigans
Bassist:  Mike Dirnt
Tuning: E A D G

h-means Hammer on   ~:  Let note ring

Intro/Verse

  Bass comes in about 3 seconds in.
G----------------------------------|
D----------------------------------|
A----1h3-1h3-1h3-1h3---11111-------|   Do this about 7 times, it speeds up when Bille start singing
E----------------------------------|

Chorus

G------------------------------------------|
D------------------------------------------| Do this twice
A----------------2-2-2-2333333-4-4-5-5----|
E---5-5-5-5--------------------------------|

[ Tab from: http://www.guitartabs.cc/tabs/g/green_day/i_want_to_be_on_tv_btab_ver_2.html ]
Verse
G-----------------------------------|
D-----------------------------------|   Back to verse, about 4 Times
A----1h3-1h3-1h3-1h3---11111--------|
E-----------------------------------|


Chorus
G---------------------------------------------|
D---------------------------------------------|
A----------------2-2-2-23-3-4-4-5-5----------|   2x
E---5-5-5-5-----------------------------------|


Verse
G-------------------------------------|
D-------------------------------------|
A-------------------------------------|  4x
E------1h3-1h3-1h3-1h3-1-1-1----------|


Chorus
G-------------------------------------------|
D-------------------------------------------|
A----------------2-2-2-23-3-4-4-5-5--------|
E---5-5-5-5---------------------------------|

Ending

G------------------------|
D------------------------|   4x
A----1h3-1h3-1h3-1h3~----|
E------------------------|


G-------------|
D-------------|
A--1h3~~~-----|
E-------------|
Comments