Green Day - I Wanna Be Alone Chords & Tabs

 

I Wanna Be Alone Chords & Tabs

Green Day Chords & Tabs

Version: 3 Type: Tab 0 ratings
1 star 2 stars 3 stars 4 stars 5 stars
comments

I Wanna Be Alone Tab

   
Green Day - I Want To Be Alone
Tabbed By: Daniel Taylor
EMail: danielt88@hotmail.com


Other than the chorus the last tab was totally wrong.

Standard Tuning

Intro (palm muted)

e--------------------------------------------------------------------
B--------------------------------------------------------------------
G-------------------------------------------0------0------0------0---
D-----------7---7-5-----7------5-----7----4------2------4------2-----
A--x-0--5-5---5-----5-5---5-5----5-5----5------3------5------3-------
E--------------------------------------------------------------------

e---------------
B---------------
G--------0------
D------4---4----
A--3h5----------
E---------------

Solo:

Harmonics-----------------------------

e--7-----7-----5-------------------7-7-----------------------------
B----------------7---------------7------0--------0------0------0---
G-----7-----7------5----5-----5----------------4------2------4-----
D--------------------5-----5-----------------5------3------5-------
A------------------------------------------------------------------
E------------------------------------------------------------------

e------------------------------------------------------------------
B------0-------0---------------------------------------------------
G----2------4-----4--------------------7-----7--------------0-----0
D--3------3h5----------7-7-7-7-7-7-7-7-7-7-7-7-7-7-7-7----4-----2--
A----------------------5-5-5-5-5-5-5-5-5-5-5-5-5-5-5-5--5-----3----
E------------------------------------------------------------------

PM                     -------------------------------

e------------------------------------5---7---------7-7-7-7---------
B-----------------------------7----7---7---7----------------7------
G------0------0-------0-----5---5-------------5-5------------------
D----4------2------4----4------------------------------------------
A--5------3------3h5-----------------------------------------------
E------------------------------------------------------------------

Harmonics                   ----------------------------------

e--------------------------------------------------10^--10-12-12^-
B--------------------------------10-10---13^--13^-----------------
G------0-----0-----0-----0----12----------------------------------
D----4-----2-----4-----2------------------------------------------
A--5-----3-----5-----3-----5--------------------------------------
E-----------------------------------------------------------------

e--12^--12-12^--12--10h12p10-----10--12--12^--12--10h12p10----10---
B-----------------------------12---------------------------12------
G------------------------------------------------------------------
D------------------------------------------------------------------
A------------------------------------------------------------------
E------------------------------------------------------------------
[ Tab from: http://www.guitartabs.cc/tabs/g/green_day/i_wanna_be_alone_tab_ver_3.html ]
e--10--17-17---17---15-14-12----13-12-10---------------------------
B----------------------------------------13-12-10------------------
G-------------------------------------------------13-12-10-10-10-10
D------------------------------------------------------------------
A------------------------------------------------------------------
E------------------------------------------------------------------

Tremelo pick  --------------

e--------------------10-10----10-10-----10-10-----10-10------------
B--------------------10-10----10-10-----10-10-----10-10------------
G--12-10-10-12^--12^-------12^------12^-------12^-------12^-12-----
D------------------------------------------------------------------
A------------------------------------------------------------------
E------------------------------------------------------------------

e------------------------------------------------------------------
B------------------------------------------------------------------
G---------------------------------------0-----0------0-----0-------
D--7-7-7-7-7-7-7-7-7-7-7-7-7-7-7-7----4-----2------4-----2----4----
A--5-5-5-5-5-5-5-5-5-5-5-5-5-5-5-5--5-----3------5-----3------5-5--
E------------------------------------------------------------------

PM --------------------------------

e--------------------------------------------------------------------
B--------------------------------------------------------------------
G-------------------------------------------0------0------0------0---
D-----------7---7-5-----7------5-----7----4------2------4------2-----
A--x-0--5-5---5-----5-5---5-5----5-5----5------3------5------3-------
E--------------------------------------------------------------------

e---------------
B---------------
G--------0------
D------4---4----
A--3h5----------
E---------------

There you go, totally correct.
===========I WANT TO BE ALONE - Green Day


By: Stephen S.   E-mail: Kerplunk_pezboy@hotmail.com

Verse
e|----------------------------------|
B|----------------------------------|
G|-----0-------0-----0---0--0---0---|
D|----4-4--4--4-4---0--0---0---0----|
A|-555----5555---5-5--3---5---3---5-|
E|----------------------------------|

Chorus
e|-------------------------|
B|-------------------------|
G|-------------77777-------|
D|-55555-77777-77777-99999-|
A|-55555-77777-55555-99999-|
E|-33333-55555-------77777-|

Solo
e|-----------------------------------------------------------------------------|
B|---------(7)-(7)-(8)-(8)-(7)-(7)-(10)-(10)-(7)-(7)-(8)-(8)-(7)---------------|
G|-(7)-(7)---------------------------------------------------------0--0--0--0--|
D|----------------------------------------------------------------0--0--0--0---|
A|---------------------------------------------------------------5--3--5--3--5-|
E|-----------------------------------------------------------------------------|

e|---------------------------------14-------------17-15-14----14-15--------|
B|-15b-15b-17b-17b--17-15-14----------17-15-14-------------17-------15-17b-|
G|---------------------------16-14-------------16--------------------------|
D|-------------------------------------------------------------------------|
A|-------------------------------------------------------------------------|
E|-------------------------------------------------------------------------|

e|--------------13-13-----13-13-----13-13-----13-13-----|
B|-17b-17b------13-13-----13-13-----13-13-----13-13-13--|
G|----------15b-------15b-------15b-------15b-------15b-|
D|------------------------------------------------------|
A|------------------------------------------------------|
E|------------------------------------------------------|
Comments