Green Day - I Fought The Law Chords & Tabs

 

I Fought The Law Chords & Tabs

Green Day Chords & Tabs

Version: 2 Type: Tab 0 ratings
1 star 2 stars 3 stars 4 stars 5 stars
comments

I Fought The Law Tab

Green Day I fought the law
From a sound bite off some website (Clash cover)
Tabbed by Liam
Email: guitar_rocker_47@hotmail.com

This is a power chord version of the classic, (tabbed by me only) 
Damn easy to play. If you don't have the song, don't worry you could purchase the
clash's great album 'the clash' which I think is the original or if you have msn 
Messenger you could add me then I would send you the song
Please rate this cos I worked it out by myself and it took a while, Thanks!

Intro
Guitar 1
E|----------------------------------------------------------------|
B|-6/8-8-8--6/8-8-8--6/8-8-8--6/8-8-8--6/8-8-8--6/8-8-8---8-6-5---|
G|--------------------------------------------------------------5-|
D|----------------------------------------------------------------|
A|----------------------------------------------------------------|
E|----------------------------------------------------------------|

Guitar 2
E|----------------------------------------------------------------|
B|----------------------------------------------------------------|
G|-7---------------------------7-------7------------------------7-|
D|-7-----------------5---------7-------7------------------7-5-4-7-|
A|-5-----------------5---------5-------5------------------7-5-4-5-|
E|-------------------3------------------------------------5-3-2---|

Verse
E|---x-x---x-x----------|---x-x---x-x----------|---x-x---x-x-----------|
B|---x-x---x-x----------|---x-x---x-x----------|---x-x---x-x-----------|
G|-7-x-x-7-x-x--------7-|-7-x-x-7-x-x--------7-|-7-x-x-7-x-x---------7-|
D|-7-x-x-7-x-x--x-x-5-7-|-7-x-x-7-x-x-x-x--5-7-|-7-x-x-7-x-x--x-x--5-7-|
A|-5-----5------x-x-5-5-|-5-----5-----x-x--5-5-|-5-----5------x-x--5-5-|
E|--------------x-x-3---|-------------x-x--3---|--------------x-x--3---|

E|---x-x---x-x----------|---x-x---x-x----------|---x-x---x-x-----------|
B|---x-x---x-x----------|---x-x---x-x----------|---x-x---x-x-----------|
G|-7-x-x-7-x-x--------7-|-7-x-x-7-x-x--------7-|-7-x-x-7-x-x---------7-|
D|-7-x-x-7-x-x--x-x-5-7-|-7-x-x-7-x-x-x-x--5-7-|-7-x-x-7-x-x--x-x--5-7-|
A|-5-----5------x-x-5-5-|-5-----5-----x-x--5-5-|-5-----5------x-x--5-5-|
E|--------------x-x-3---|-------------x-x--3---|--------------x-x--3---|

Chorus
E|---------------------------------------------------------------------------|
B|---------------------------------------------------------------------------|
G|--------------------------7-7-7-7-7-7-7-7-7-7-7-7--------------------------|
D|-5-5-5-5-5-5-5-5-5-5-5-5--7-7-7-7-7-7-7-7-7-7-7-7--5-5-5-5-5-5-5-5-5-5-5-5-|
A|-5-5-5-5-5-5-5-5-5-5-5-5--5-5-5-5-5-5-5-5-5-5-5-5--5-5-5-5-5-5-5-5-5-5-5-5-|
E|-3-3-3-3-3-3-3-3-3-3-3-3---------------------------3-3-3-3-3-3-3-3-3-3-3-3-|
[ Tab from: http://www.guitartabs.cc/tabs/g/green_day/i_fought_the_law_tab_ver_2.html ]
E|---x-x---x-x----------|---x-x---x-x--------------------------------|
B|---x-x---x-x----------|---x-x---x-x--------------------------------|
G|-7-x-x-7-x-x--------7-|-7-x-x-7-x-x---------7----------------------|
D|-7-x-x-7-x-x--x-x-5-7-|-7-x-x-7-x-x--7--5-4-7----------------------|
A|-5-----5------x-x-5-5-|-5-----5------7--5-4-5----------------------|
E|--------------x-x-3---|--------------5--3-2------------------------|

Solo (bend every note on this solo - cos if you don't it doesn't sound right)
E|----------------------------8-8--10-10--13-13--17-17-|
B|--------------10/11--11/13---------------------------| x4 but on the 4th time you
G|--------10/12----------------------------------------| play it don't play the
D|-10/12-----------------------------------------------| bit at the end on the high
A|-----------------------------------------------------| e string
E|-----------------------------------------------------| 

Outro (PM = palm mute that chord)
E|------------------------------------|------------------------------------|
B|------------------------------------|------------------------------------|
G|-7-7-7-7-----------7-7-7-7--7-7-7-7-|-7-7-7-7-----------7-7-7-7--7-7-7-7-|
D|-7-7-7-7--5-5-5-5--7-7-7-7--7-7-7-7-|-7-7-7-7--5-5-5-5--7-7-7-7--7-7-7-7-|
A|-5-5-5-5--5-5-5-5--5-5-5-5--5-5-5-5-|-5-5-5-5--5-5-5-5--5-5-5-5--5-5-5-5-|
E|----------3-3-3-3-------------------|----------3-3-3-3-------------------|
PM **********************************   **********************************

E|------------------------------------|-------------------------------|
B|------------------------------------|-------------------------------|
G|-7-7-7-7-----------7-7-7-7--7-7-7-7-|-7-7-7-7-------------------7---|
D|-7-7-7-7--5-5-5-5--7-7-7-7--7-7-7-7-|-7-7-7-7--5-5-5-5---7--5-4-7---|
A|-5-5-5-5--5-5-5-5--5-5-5-5--5-5-5-5-|-5-5-5-5--5-5-5-5---7--5-4-5---|
E|----------3-3-3-3-------------------|----------3-3-3-3---5--3-2-----|
PM *****************************************************


Order

Intro x2
Verse
Chorus
Solo x2
Intro
Verse 
Chorus
Intro x2
Outro

Don't forget to rate this and also feedback via comments thingy is welcome, Thanks
Cheers guys

Lyrics:

(Verse)
Breaking rocks in the hot sun
I thought the law and the law won
I thought the law and the law won
I needed money cos I had none
I thought the law and the law won
I thought the law and the law won

(Chorus)
I miss my baby and I feel so sad
I guess my reasons run
Well she's the best girl that I ever had
I thought the law and the law won
I thought the law and the...

(Verse)
Robbing people with the six gun
I thought the law and the law won
I thought the law and the law won
I miss my baby and my miss my fun
I thought the law and the law won
I thought the law and the law won

(Chorus)
I miss my baby and I feel so sad
I guess my reasons run
Well she's the best girl that I ever had
I thought the law and the law won
I thought the law and the...


I thought the law and the law won
I thought the law and the law won
I thought the law and the law won
I thought the law and the law won

(Outro)
I thought the law and the law won
I thought the law and the law won
I thought the law and the law won
I thought the law and the...
Comments