Green Day - I Fought The Law Chords & Tabs

 

I Fought The Law Chords & Tabs

Green Day Chords & Tabs

Version: 1 Type: Bass Tab 0 ratings
1 star 2 stars 3 stars 4 stars 5 stars
comments

I Fought The Law Bass Tab

   
Green Day - I Fought The Law
Email: punkgothrockdude@yahoo.com

Tuning: Standard (E A D G)

Well, it was long and hard, but I did it. 
This is Green Day's new song "I Fought The Law. From that Superbowl commericial 
This is my very first tab ever, so sorry if it's wrong. 

Intro
G:|-----------------------------------------------------------------------|
D:|33333333----------33333333----------33333333----------33333333---------|
A:|---------11113333----------310---------------11113333----------310-----|
E:|------------------------------1-----------------------------------1----|

"Breakin' Rock In The Hot Sun..."
G:|-----------------------------------------------------|
D:|33333333-----3333-33333333-----3333-33333333-----3333|
A:|---------1111--------------3335--------------3335----|
E:|-----------------------------------------------------|

"I Needed Money Cuz I Had None..."
G:|-----------------------------------------------------|
D:|33333333-----3333-33333333-----3333-33333333-----3333|
A:|---------1111--------------3335--------------3335----|
E:|-----------------------------------------------------|

"I Miss My Baby..."
G:|-----------------------------------|
D:|--003300---003300------------------|
A:|11-------11---------003300---003300|
E:|------------------11-------11------|

G:|-----------------------------------------------------|
D:|--003300---003300-33333333-----3333-33333333---------|
A:|11-------11----------------1111--------------310-----|
E:|------------------------------------------------1----|

Solo
G:|-----------------------------------------------------------------------|
D:|--003300---003300---------------------003300---003300------------------|
A:|11-------11-----------33-----3--3---11-------11-----------33-----3--3--|
E:|------------------111------1--1---1-------------------111------1--1---1|
[ Tab from: http://www.guitartabs.cc/tabs/g/green_day/i_fought_the_law_btab.html ]
G:|-----------------------------------------------------------------------|
D:|--003300---003300---------------------003300---003300-33333333-----3333|
A:|11-------11-----------33-----3--3---11-------11----------------1111----|
E:|------------------111------1--1---1------------------------------------|

G:|-----------------|
D:|33333333---------|
A:|---------310-----|
E:|------------1----|

"Robbin' People With A Six Gun..."
G:|-----------------------------------------------------|
D:|33333333----------33333333-----3333-33333333-----3333|
A:|---------------------------3335--------------3335----|
E:|-----------------------------------------------------|

"I Miss My Baby And I Miss My Fun..."
G:|-----------------------------------------------------|
D:|33333333-----3333-33333333-----3333-33333333-----3333|
A:|---------1111--------------3335--------------3335----|
E:|-----------------------------------------------------|

"I Miss My Baby..."
G:|-----------------------------------|
D:|--003300---003300------------------|
A:|11-------11---------003300---003300|
E:|------------------11-------11------|

G:|-----------------------------------------------------|
D:|--003300---003300-33333333-----3333-33333333---------|
A:|11-------11----------------1111--------------310-----|
E:|------------------------------------------------1----|

Outro
G:|-----------------------------------------------------------------------|
D:|33333333----------33333333----------33333333----------33333333---------|
A:|---------11113333----------310---------------11113333----------310-----|
E:|------------------------------1-----------------------------------1----|

Then there's a guitar/bass silence with only drums.
"I Fought The Law And The Law Won"

Then the guitar/bass comes back in until the end of the song.
G:|-----------------------------------------------------------------------|
D:|33333333-----3333-33333333-----3333-33333333-----3333-33333333---------|
A:|---------1111--------------3335--------------1111--------------310-----|
E:|------------------------------------------------------------------1----|
Comments