Green Day - Homecoming Chords & Tabs

 

Homecoming Chords & Tabs

Green Day Chords & Tabs

Version: 2 Type: Tab 5 ratings
1 star 2 stars 3 stars 4 stars 5 stars
comments

Homecoming Tab

Homecoming
American Idiot
Green Day

If there’s lots of spaces between chords, that probably just means that you play it more than once and I couldn’t be bothered to write it all out (sorry).
S=staccato (lift your fingers from the fret board to silence the note)
X=fret hand mute
~=let note ring out
x/=pick scrape

The death of saint jimmy:
Intro
-----0-0-0-0-----------------------------
-2-2-0-0-0-0--3-2-2-x-x------------------ x6
-2-2-1-1-1-1--2-2-2-x-x------------------
-2-2-2-2-2-2------2-x-x------------------
-----2-2-2-2-----------------------------
-----0-0-0-0-----------------------------

-0-0-0-0-0-----------0-0-0-0-0-0-----
-0-0-0-0-0-2-2-3-2-3-0-0-0-0-0-0-2~--
-1-1-1-1-1-2-2-2-2-2-1-1-1-1-1-1-2~--
-2-2-2-2-2-2-2-2-2-2-2-2-2-2-2-2-2~--
-2-2-2-2-2-----------2-2-2-2-2-2-----
-0-0-0-0-0-----------0-0-0-0-0-0-----
[ Tab from: http://www.guitartabs.cc/tabs/g/green_day/homecoming_tab_ver_2.html ]
-------------0~---------
-3-2-3-2-3-2-0~---------
-2-2-2-2-2-2-1~---------
-------------2~---------
-------------2~---------
-------------0~---------
Verse
---------------------------------------
-x-0-----------------------------------
-x-0---7------7-7---------------------- you can work out how many times and stuff
-x-0-7-7-2--7-7-7-7-2------------------
-----7-5-2--7-5-4-7-2------------------
-----5---0--5-----5-0------------------
Chorus
--------------------------------------
--------------------------------------
------------------2-------------------
-4--------------2-2-------------------
-4--------------2-0-------------------
-2--------------0---------------------
Jimmy died……………today
East 12th street:
Intro:
-------------------------
-------------------------
---7--------------------- play 12 times but on the 4th,8th and 12th time fret hand mute 
-7-7-7-5-7-7-7-7-7------- the last 4 chords
-7-5-7-5-7-7-7-7-7-------
-5---5-3-5-5-5-5-5-------
Part 1:
--------------------------------------------------------------------- x4
---------------------------------------------------------------------
-7----------------------7--------------------------------------------
-7----------------5-5-5-7--------5---------------7-------------------
-5----------------5-5-5-5--------5---------------7-------------------
------------------3-3-3----------3---------------5-------------------
Part 2:
-2-2-2-2-3-2-0-2---------------------------
-3-3-3-3-3-3-3-3---------------------------
-2-2-2-2-2-2-2-2--7------------7-----------
------------------7------7-5-7-7-----------
------------------5------7-5-7-5-----------
-------------------------5-3-5-------------
Part2:
---------------------------------
---------------------------------
-5-------------5-----------------
-5-----7---x4--5--7—x4-----------
-3-----7-------3--7--------------
-------5----------5--------------
Part 3:
-10-8-3-5------------------------
-10-8-3-5------------------------
-----------7s7s7s----------------
-----------7s7s7s-7-5-7----------
-----------5s5s5s-7-5-7----------
------------------5-3-5----------
Nobody likes you:
Bass but you can strum
---------------------------------------
---------------------------------------
-7-------------------------------------
-7----------7-------5--------------7---
-5----------7-------5--------------7---
------------5-------3--------------5---

Rock n roll girlfriend:
Intro
--------------------
--------------------
-7~-9-9-9-----------
-7~-9-9-9-----------
-5~-7-7-7-----------
--------------------
Verse
---------------------------
---------------------------
--------7-----------9------
-7------7-----7-----9------
-7------5-----7-----7------
-5------------5------------
Sorry im working on the solo
End:
---------------------------------------
---------------------------------------
------------------7-7---7--------------
-5-5-5-7-x2-------7-7-7-7--------------
-5-5-5-7----------5-5-7-5--------------
-3-3-3-5--------------5----------------

We’re coming home again:
Part1:
--------------------------------
--------------------------------
-7-7-x-x-7-7-x-x-7-7-x----------
-7-7-x-x-7-7-x-x-7-7-x-9-5-7----
-5-5-x-x-5-5-x-x-5-5-x-9-5-7----
-----------------------7-3-5----
Part 2:
------------------------------------------
-----------------ending1---ending2--------
-7-------7---------------------7----------
-7---9---7-------9-5-7-----5-7-7-7--------
-5---9---5-------9-5-7-----5-7-5-7--------
-----7-----------7-3-5-----3-5---5--------
Part3:
-----------------------------------
------------------ending1—ending2--
------------------7----------9-----
-5s5s5---7s7s7----7-7-----9--9-----
-5s5s5---7s7s7—x2-5-7-----9--7-----
-3s3s3---5s5s5------5-----7--------
Part4:
-----------------------
-----------------------
-7---------------------
-7--------5-----7------
-5--------5-----7------
----------3-----5------
Part5:
------------------------------------
------------------------------------
-7----------------------------------
-7------------7---------------------
-5------------7-----------x/--------
--------------5---------------------
Part6:
---------------------------------------
---------------------------------------
-7s7-7-7-7s----------------------------
-7s7-7-7-7s----5----7s7-7-7-7s----5----
-5s5-5-5-5s x2-5-x6-7s7-7-7-7s-x2-5-x6-
---------------3----5s5-5-5-5s----3----

There are probably mistakes but I hope there’s not too many. enjoy. Rock on!










Comments