Green Day - Holiday Chords & Tabs

 

Holiday Chords & Tabs

Green Day Chords & Tabs

Version: 6 Type: Tab 3 ratings
1 star 2 stars 3 stars 4 stars 5 stars
comments

Holiday Tab

   
Artist: Green Day
Song: Holiday

Tuning:Standard

Intro --------------------------|repeat as much times when needed
e|------------------------------|
B|------------------------------|
G|--10-10-\--6-6-/-13-13-\-8-8--|
D|--10-10-\--6-6-/-13-13-\-8-8--|
A|---8--8-\--4-4-/-11-11-\-6-6--|
E|------------------------------|
[ Tab from: http://www.guitartabs.cc/tabs/g/green_day/holiday_tab_ver_6.html ]
Chours
e|---------------------------------------------------------------------------|
B|---------------------------------------------------------------------------|
G|---------6-6-6-6---------8-8-8-8--------------------------------------8----|
D|-3-3-3-3-6-6-6-6-6-6-6-6-8-8-8-8--x2-before u finish this add one more8----|
A|-3-3-3-3-4-4-4-4-6-6-6-6-6-6-6-6--------------------------------------6----|
E|-1-1-1-1---------4-4-4-4---------------------------------------------------|

Part after chourus
e|---------------------------------------------------------------------------|
B|---------------------------------------------------------------------------|
G|---------6---8-5-----------------------------------------------------------|
D|-3-3-6-6-6-8-8-5-----------------------------------------------------------|
A|-3-3-6-6-4-8-6-3-----------------------------------------------------------|
E|-1-1-4-4---6---------------------------------------------------------------|

This is basiclly the whole song except the bridge. Still figuring that part out but yea.
if have any comments email or something

| /  slide up
| \  slide down
| h  hammer-on
| p  pull-off
| ~  vibrato
| +  harmonic
| x  Mute note
Comments