Green Day - Holiday Chords & Tabs

 

Holiday Chords & Tabs

Green Day Chords & Tabs

Version: 5 Type: Tab 2 ratings
1 star 2 stars 3 stars 4 stars 5 stars
comments

Holiday Tab

Song: holiday

Artist: green day
                                       X :  muted strings, if at top of string means not played at all
Tuning: standard            \ :   slide   


     Play each chord twice
Intro:            
E|----x----x----x----x----|
B|----9----6----13---8----|
G|----x----x----x----x----|
D|----x----x----x----x----|     x4
A|----8----4----11---6----|
E|----x----x----x----x----|

 verse  part 1                         verse part 2                    then play verse 1 end with this                   
E|----x----x----x----x----|    |----x----x----x----x----|     |----x----|
B|----9----x----x----x----|    |----9----x----x----x----|     |----x----|     find strum pattern
G|----x----x----x----x----|    |----x----x----x----x----|     |----x----|     just listen to it……
D|----10---6----x----8----|x3   |---10---6----x----x----| x1  |----x----|    ………then play whole 
A|----8----4----6----6----|     |----8----4----6---10---|     |---10----|   thing over but play first      
E|----x----x----4----x----|     |----x----x----4----8----|    |----8----|    part only 1 time through

 Chorus:      again, find strum pattern………not hard
E|----x----x----x----x----|       E|----x----x----x----x----|      
B|----x----x----x----x----|       B|----x----x----x----x----| 
G|----x----6----x----8----|       G|----x----6----x----x----|   
D|----3----6----6----8----|  x1   D|----3----6----6----x----|
A|----3----4----6----6----|       A|----3----4----6---10----|
E|----1----x----4----x----|       E|----1----x----4----8----|
 

Then play intro 2 times through

[ Tab from: http://www.guitartabs.cc/tabs/g/green_day/holiday_tab_ver_5.html ]
verse  part 1                         verse part 2                    then play verse 1 end with this                   
E|----x----x----x----x----|    |----x----x----x----x----|   |----x----|
B|----9----x----x----x----|    |----9----x----x----x----|   |----x----|     
G|----x----x----x----x----|    |----x----x----x----x----|   |----x----|     
D|----10---6----x----8----|x1  |---10---6----x----x----| x1 |----x----|    then play whole 
A|----8----4----6----6----|    |----8----4----6---10---|    |---10----|   thing over 
E|----x----x----4----x----|    |----x----x----4----8----|   |----8----|    

 
Then play whole chorus again


Then right after play bridge
E|----x----x----x----x----x----x----|
B|----x----x----x----x----x----x----|
G|----x----x----8----x---10----5----|
D|----3\---6----8----8---10----5----|
A|----3\---6----6----8----8----3----|
E|----1\---4----x----6----x----x----|
 
Then solo
E|-------------------------------------------8-8--------------------------
B|----6--6-6-8-9--------------8-5-5-----6-6-6--6-6-8-9--------------8-8-8-8-8\13-13-13-13-13\17-17-17-17-17-18
G|----------------8-6-5--5-5-5------5--5-----------------8-6-5--5-5-5
Dx
Ax
Ex

Then at end of the solo a power chord

E|----x----
B|----x----
G|----x----
D|----7----
A|----7----
E|----5----


Then no guitar for awhile but starts up with

E|----x----x----x----x----|
B|----x----x----x----x----|
G|----7----x----9----5----|
D|----7----7----9----5----|
A|----5----7----7----3----|
E|----x----5----x----x----|

Then plays chorus 2 times through and on last note keep strumming


Then play the verse part 1,3 times through and then play one last modified verse

E|----x----x----x----x----x----x----|
B|----9----x----x----x----x----x----|
G|----x----x----x----x----x----x----|
D|---10----6----x----8----x----3----|
A|----8----4----6----6----8----3----|
E|----x----x----4----x----6----1----|


And that’s it hope you enjoy and did’nt have too much confusion.


Comments