Green Day - Holiday Chords & Tabs

 

Holiday Chords & Tabs

Green Day Chords & Tabs

Version: 4 Type: Tab 2 ratings
1 star 2 stars 3 stars 4 stars 5 stars
comments

Holiday Tab

   
Artist: Green Day [Billie Joe Armstrong, Mike Pritchard, Frank Wright]
Song: Holiday [Track 3]
Album: American Idiot [September 2004]
Guitarist: Billie Joe Armstrong, Jason White
Tabs By: Jonathon Knodle [noodleman5@msn.com]

Tuning: Standard [e B G D A e]

This is Green Day’s President Bush bashing song “Holiday.”  This 
song has some difficult areas if you are a beginner.  During the 
introduction, you must strike every string except the low E.  
You must do this, because you will only get the distinct sound of 
the introduction if you strike all of those strings.  During the 
bridge, begin to play the guitar on the six time the bass is played.  
Enjoy and have fun.

Intro: (Guitar 2 w/ Distortion)
e|-x--------x--------x--------x---|
B|-9--------x--------x--------x---|
G|-x--------6--------13-------8---| (x4)
D|-10-------6--------13-------8---|
A|-8--------4--------11-------6---|
E|-x--------x--------x--------x---|

Verse: (Guitar 1 & 2 w/ Distortion)
e|-x--------x--------x--------x---|
B|-x--------x--------x--------x---|
G|-10-------6--------x--------8---| (x4)
D|-10-------6--------6--------8---|
A|-8--------4--------6--------6---|
E|-x--------x--------4--------x---|

e|-x--------x--------x--------x--------x---|
B|-x--------x--------x--------x--------x---| 
G|-10-------6--------x--------8--------5---| (x1)
D|-10-------6--------6--------8--------5---|
A|-8--------4--------6--------6--------3---|
E|-x--------x--------4--------x--------x---|

Verse: (Guitar 1 & 2 w/ Distortion)
e|-x--------x--------x--------x---|
B|-x--------x--------x--------x---|
G|-10-------6--------x--------8---| (x2)
D|-10-------6--------6--------8---|
A|-8--------4--------6--------6---|
E|-x--------x--------4--------x---|

e|-x--------x--------x--------x--------x---|
B|-x--------x--------x--------x--------x---| 
G|-10-------6--------x--------8--------5---| (x1)
D|-10-------6--------6--------8--------5---|
A|-8--------4--------6--------6--------3---|
E|-x--------x--------4--------x--------x---|

Chorus: (Guitar 1 & 2 w/ Distortion)
e|-x----x----x----x--------x----x----x----x---|
B|-x----x----x----x--------x----x----x----x---|
G|-x----6----x----8--------x----6----x----5---| (x1)
D|-3----6----6----8--------3----6----6----5---|
A|-3----4----6----6--------3----4----6----3---|
E|-1----x----4----x--------1----x----4----x---|

Intro: (Guitar 2 w/ Distortion)
e|-x--------x--------x--------x---|
B|-9--------x--------x--------x---|
G|-x--------6--------13-------8---| (x2)
D|-10-------6--------13-------8---|
A|-8--------4--------11-------6---|
E|-x--------x--------x--------x---|

Verse: (Guitar 1 & 2 w/ Distortion)
e|-x--------x--------x--------x---|
B|-x--------x--------x--------x---|
G|-10-------6--------x--------8---| (x2)
D|-10-------6--------6--------8---|
A|-8--------4--------6--------6---|
E|-x--------x--------4--------x---|

e|-x--------x--------x--------x--------x---|
B|-x--------x--------x--------x--------x---| 
G|-10-------6--------x--------8--------5---| (x1)
D|-10-------6--------6--------8--------5---|
A|-8--------4--------6--------6--------3---|
E|-x--------x--------4--------x--------x---|

Verse: (Guitar 1 & 2 w/ Distortion)
e|-x--------x--------x--------x---|
B|-x--------x--------x--------x---|
G|-10-------6--------x--------8---| (x2)
D|-10-------6--------6--------8---|
A|-8--------4--------6--------6---|
E|-x--------x--------4--------x---|
[ Tab from: http://www.guitartabs.cc/tabs/g/green_day/holiday_tab_ver_4.html ]
e|-x--------x--------x--------x--------x---|
B|-x--------x--------x--------x--------x---| 
G|-10-------6--------x--------8--------5---| (x1)
D|-10-------6--------6--------8--------5---|
A|-8--------4--------6--------6--------3---|
E|-x--------x--------4--------x--------x---|

Chorus: (Guitar 1 & 2 w/ Distortion)
e|-x----x----x----x--------x----x----x----x---|
B|-x----x----x----x--------x----x----x----x---|
G|-x----6----x----8--------x----6----x----5---| (x1)
D|-3----6----6----8--------3----6----6----5---|
A|-3----4----6----6--------3----4----6----3---|
E|-1----x----4----x--------1----x----4----x---|

Bridge: (Guitar 1 & 2 w/ Distortion)
e|-x-x----x-x----x----x----x----x--------x-x----x-x----x----x----x---|
B|-x-x----x-x----x----x----x----x--------x-x----x-x----x----x----x---|
G|-x-x----x-x----6----3----8----x--------x-x----x-x----6----5----10--| (x2)
D|-3-3----6-6----6----3----8----8--------3-3----6-6----6----5----10--|
A|-3-3----6-6----4----1----6----8--------3-3----6-6----4----3----8---|
E|-1-1----4-4----x----x----x----6--------1-1----4-4----x----x----x---|

Guitar Solo: 
(Guitar 1 w/ Distortion (Rhythm Guitar))
e|-x--------x--------x--------x--------x--------x--------x---|
B|-x--------x--------x--------x--------x--------x--------x---|
G|-6--------x--------5--------10-------6--------x--------5---|
D|-6--------6--------5--------10-------6--------6--------5---|
A|-4--------6--------3--------8--------4--------6--------3---|
E|-x--------4--------x--------x--------x--------4--------x---|

(Guitar 2 w/ Distortion (Lead Guitar))
e|---------------------------8---8--------------------------------------|
B|-6-6-6-8-9-9-------8-6---6---6---6-6-6-8-9-9--------------------------|
G|-------------8-6-5-----5---------------------8-6-5--------------------|
D|----------------------------------------------------------------------|
A|----------------------------------------------------------------------|
E|----------------------------------------------------------------------|

e|----------------------------------------------------------------------|
B|-8-8--8-8--13-13--13-13--17-17-17-17-17-17-17-17-17-17-17-17-17--18---|
G|----------------------------------------------------------------------|
D|----------------------------------------------------------------------|
A|----------------------------------------------------------------------|
E|----------------------------------------------------------------------|

Bridge: (Bass Guitar)
e|-------------------------------------------------------------------|
B|-------------------------------------------------------------------|
G|-------------------------------------------------------------------| (x6)
D|-------------------------------------------------------------------|
A|---------------4----1----6---------------------------4----3----8---|
E|-1-1----4-4-------------------6--------1-1----4-4------------------|

(Guitar 1 & 2 w/ Distortion)
e|-x----x----x--------x----|
B|-x----x----x--------x----|
G|-6----5----10-------x----| (x1) 
D|-6----5----10-------10---|
A|-4----3----8--------10---|
E|-x----x----x--------8----|

Chorus: (Guitar 1 & 2 w/ Distortion)
e|-x----x----x----x--------x----x----x----x---|
B|-x----x----x----x--------x----x----x----x---|
G|-x----6----x----8--------x----6----x----5---| (x2)
D|-3----6----6----8--------3----6----6----5---|
A|-3----4----6----6--------3----4----6----3---|
E|-1----x----4----x--------1----x----4----x---|

Outro: (Guitar 2 w/ Distortion)
e|-x----x----x----x-------------x----x----x----x----x----x---|
B|-x----x----x----x-------------x----x----x----x----x----x---|
G|-10---6----x----8---(x3)------10---6----8----x----10---x---| (x1)
D|-10---6----6----8-------------10---6----8----10---10---3---|
A|-8----4----6----6-------------8----4----6----10---8----3---|
E|-x----x----4----x-------------x----x----x----8----x----1---|

If you have any questions or comments, please e-mail me the address above.  Thank you.
Comments