Green Day - Holiday Chords & Tabs

 

Holiday Chords & Tabs

Green Day Chords & Tabs

Version: 3 Type: Tab 6 ratings
1 star 2 stars 3 stars 4 stars 5 stars
comments

Holiday Tab

Song – Holiday
Band – Green day
Tabber – kirkhammett393


Intro:

e|--------------------------------------------------------------------------------------|
B|--9---9--x--6---6--x--13---13--x--8--8--8--8------------------------------------------|
G|-10--10--x--6---6--x--13---13--x--8--8--8--8------------------------------------------|
D|---------x---------x-----------x------------------------------------------------------|
A|--8---8--x--4---4--x--11---11--x--6--6--6--6------------------------------------------|
E|--------------------------------------------------------------------------------------|

Verse:                                          Verse and chorus ending:

e|-------------------------------------------|  e|--------------------------------------|
B|-------------------------------------------|  B|--------------------------------------|
G|10--10--x--6---6--x---------x--8--8--8--8--|  G|5-5--5-5--5-5--5-5--5-5--5-5--5-5--5-5|
D|10--10--x--6---6--x--6---6--x--8--8--8--8--|  D|5-5--5-5--5-5--5-5--5-5--5-5--5-5--5-5|
A|-8---8--x--4---4--x--6---6--x--6--6--6--6--|  A|3-3--3-3--3-3--3-3--3-3--3-3--3-3--3-3|
E|---------------------4---4-----------------|  E|--------------------------------------|

Chorus:

e|--------------------------------------------------------------------------------------|
B|--------------------------------------------------------------------------------------|
G|-------------6-----------------------------------8-8-8-8------------------------------|
D|-3-----------6-----------------6-----------------8-8-8-8------------------------------|
A|-3-----------4-----------------6-----------------6-6-6-6------------------------------|
E|-1-----------------------------4------------------------------------------------------|
      I beg to dream and differ, from these hollow lives…………
[ Tab from: http://www.guitartabs.cc/tabs/g/green_day/holiday_tab_ver_3.html ]
Bridge:

e|--------------------------------------------------------------------------------------|
B|--------------------------------------------------------------------------------------|
G|-------------------6-----8-----------------------8----10------------------------------|
D|-3--3--x--6--6--x--6--8--8-10--3--3--x--6--6--x--8-10-10------------------------------|
A|-3--3--x--6--6--x--4--8--6-10--3--3--x--6--6--x--6-10--8------------------------------|
E|-1--1--x--4--4--x-----6-----8--1--1--x--4--4--x-----8---------------------------------|

Solo:

e|---------------------------------------8-----8---------------------------8s12—12s13---|
B|-1s6-6--6-6-8-9----------8----------6-----6-----6--6-6-8-9----------8--8--------------|
G|----------------8-6-5-------8--5---------------------------8-6-5--5-------------------|
D|--------------------------------------------------------------------------------------|
A|--------------------------------------------------------------------------------------|
E|--------------------------------------------------------------------------------------|

Outro:

e|--------------------------------------------------------------------------------------|
B|--9--9--x--6--6--x--------------------------------------------------------------------|
G|-10-10--x--6--6--x--8----10-----------------------------------------------------------|
D|--------x--------x--8-10-10--3--------------------------------------------------------|
A|--8--8--x--4--4--x--6-10--8--3--------------------------------------------------------|
E|-----------------------8-----1--------------------------------------------------------|

Intro x4
Verse 1 x3
Verse ending
Verse 1 x3
Chorus 
Chorus ending
Intro x2
Verse 2 x3 
Verse ending
Verse 2 x3
Verse ending
Chorus
Chorus ending
Bridge x2
Solo
Bass bit
Chorus x2
Intro x3
Outro


Comments