Green Day - Holiday Chords & Tabs

 

Holiday Chords & Tabs

Green Day Chords & Tabs

Version: 2 Type: Tab 70 ratings
1 star 2 stars 3 stars 4 stars 5 stars
comments

Holiday Tab

Holiday Revised
Green Day

 Tuning: Standard

Intro x2
e|-----------------------------------------------------
B|-----------------------------------------------------
G|--10-------6--------13---------8------------------
D|--10-x2----6-x2-----13-x2------8-x3--------------
A|--8--------4--------11---------6-----------------
E|-----------------------------------------------------

e|-----------------------------------------------------
B|-----------------------------------------------------
G|--10-------6---------13---------8------------------
D|--10-x2----6-x2------13-x2------8-x1--------------
A|--8--------4---------11---------6-----------------
E|-----------------------------------------------------


Verse x5
e|----------------------------------------------------
B|----------------------------------------------------
G|--10-------6-------------------8------------------
D|--10-x2----6-x2-------6--------8-x3--------------
A|---8-------4----------6-x2-----6------------------
E|----------------------4-----------------------------


Pre Chorus x1
e|---------------------------------------------
B|---------------------------------------------
G|---5-5-5-5-5-5-5-5-5--------------------
D|---5-5-5-5-5-5-5-5-5--------------------
A|---3-3-3-3-3-3-3-3-3--------------------
E|---------------------------------------------






Verse x3
e|----------------------------------------------------
B|----------------------------------------------------
G|--10-------6-------------------8------------------
D|--10-x2----6-x2-------6--------8-x3--------------
A|---8-------4----------6-x2---- 6------------------
E|----------------------4-----------------------------


Pre Chorus x1
e|---------------------------------------------
B|---------------------------------------------
G|---5-5-5-5-5-5-5-5-5--------------------
D|---5-5-5-5-5-5-5-5-5--------------------
A|---3-3-3-3-3-3-3-3-3--------------------
E|---------------------------------------------

Chorus x1
e|----------------------------------------------------------------------------
B|---------------------------------------------------------------------------
G|------------6-----------------8------------------6----------------5------
D|-3----------6-x4-----6--------8-x4-----3---------6-x4-----6-------5-x5--
A|-3-x4-------4--------6-x4-----6--------3-x4------4--------6-x4----3------
E|-1-------------------4-----------------1------------------4--------------

Intro x1
e|-----------------------------------------------------
B|-----------------------------------------------------
G|--10-------6--------13---------8------------------
D|--10-x2----6-x2-----13-x2------8-x3--------------
A|--8--------4--------11---------6-----------------
E|-----------------------------------------------------

e|-----------------------------------------------------
B|-----------------------------------------------------
G|--10-------6--------13---------8------------------
D|--10-x2----6-x2-----13-x2------8-x1--------------
A|--8--------4--------11---------6-----------------
E|-----------------------------------------------------

Verse x3
e|----------------------------------------------------
B|----------------------------------------------------
G|--10-------6----------------8------------------
D|--10-x2----6-x2----6--------8-x3--------------
A|---8-------4-------6-x2---- 6------------------
E|-------------------4-----------------------------

Pre chorus x1
e|---------------------------------------------
B|---------------------------------------------
G|---5-5-5-5-5-5-5-5-5--------------------
D|---5-5-5-5-5-5-5-5-5--------------------
A|---3-3-3-3-3-3-3-3-3--------------------
E|---------------------------------------------
[ Tab from: http://www.guitartabs.cc/tabs/g/green_day/holiday_tab_ver_2.html ]
Verse x3
e|----------------------------------------------------
B|----------------------------------------------------
G|--10-------6-------------------8------------------
D|--10-x2----6-x2-------6--------8-x3--------------
A|---8-------4----------6-x2---- 6------------------
E|----------------------4-----------------------------

Pre chorus x1
e|---------------------------------------------
B|---------------------------------------------
G|---5-5-5-5-5-5-5-5-5--------------------
D|---5-5-5-5-5-5-5-5-5--------------------
A|---3-3-3-3-3-3-3-3-3--------------------
E|---------------------------------------------

Chorus x1
e|----------------------------------------------------------------------------
B|---------------------------------------------------------------------------
G|----------6-----------------8------------------6----------------5------
D|-3--------6-x4----6---------8-x4-----3---------6-x4-----6-------5-x5--
A|-3-x4----4--------6-x4------6--------3-x4------4--------6-x4----3------
E|-1------- --------4------------------1------------------4--------------

Bridge x2
e|------------------------------------------------------------
B|------------------------------------------------------------
G|------------6---3---8----------------8---5---10------
D|-33--66-----6---3---8---8---33--66---8---5---10------
A|-33--66-----4---1---6---8---33--66---6---3----8--------
E|-11--44-----------------6---11--44----------------------

Solo x1
e|--------------------------------------------8---8----------------------
B|-6-6-6-8-9----------------8-8-8-----6----6----6-6-6-8-9----------------
G|---------------8-6-5-5-5---------5-------------------------8-6-5-5-5-
D|------------------------------------------------------------------------
A|------------------------------------------------------------------------
E|------------------------------------------------------------------------

e|-----------8-8-8-8--12-12-12-12-12-12-12-12---13~-----
B|-8-8-8-8-8-8-8-8-8---8--8---8--8---8--8---8-------------
G|------------------------------------------------------------------
D|------------------------------------------------------------------
A|------------------------------------------------------------------
E|------------------------------------------------------------------


Ending Bass Riff x1
e|-------------------------------------------------------------
B|-------------------------------------------------------------
G|---8--5--10----5-5-5-5-5-5-5-5-5-5-5-5-5-5-5-5-----
D|---8--5--10----5-5-5-5-5-5-5-5-5-5-5-5-5-5-5-5-----
A|---6--3--8-----3-3-3-3-3-3-3-3-3-3-3-3-3-3-3-3------
E|--------------------------------------------------------------

Chorus x1
e|----------------------------------------------------------------------------
B|---------------------------------------------------------------------------
G|----------6-------------------8------------------6----------------5------
D|-3--------6-x4-------6--------8-x4-----3---------6-x4-----6-------5-x5--
A|-3-x4-----4----------6-x4-----6--------3-x4------4--------6-x4----3------
E|-1-------------------4-----------------1------------------4--------------

e|----------------------------------------------------------------------------
B|---------------------------------------------------------------------------
G|------------6-----------------8------------------6----------------5------
D|-3----------6-x4-----6--------8-x4-----3---------6-x4-----6-------5-x16-
A|-3-x4-------4--------6-x4-----6--------3-x4------4--------6-x4----3------
E|-1-------------------4-----------------1------------------4--------------

Verse
e|----------------------------------------------------
B|----------------------------------------------------
G|--10-------6--------------------8------------------ x3
D|--10-x2----6-x2-------6---------8-x3--------------  
A|---8-------4----------6-x2----- 6------------------
E|----------------------4-----------------------------

e|-------------------------------------
B|-------------------------------------
G|--10-------6----------8---5---10--
D|--10-x2----6-x2-------8---5---10--
A|---8-------4----------6---3---8---
E|--------------------------------------
Comments