Green Day - Holiday Chords & Tabs

 

Holiday Chords & Tabs

Green Day Chords & Tabs

Version: 16 Type: Tab 0 ratings
1 star 2 stars 3 stars 4 stars 5 stars
comments

Holiday Tab

   
----------------------------------------------------------------------------
			     Holiday-Green Day
----------------------------------------------------------------------------
Tabbed by:Sean Anderson
Email:

Tuning:

e|------|-------|-------|-------|-------------------------------------------|
B|------|-------|-------|-------|-----four----------------------------------|
G|-5--5-|-------|--8--8-|-------|-----times---------------------------------|
D|-5--5-|--5--5-|--8--8-|--8--8-|-------------------------------------------|
A|-3--3-|--5--5-|--6--6-|--8--8-|-------------------------------------------|
E|------|--3--3-|-------|--6--6-|-------------------------------------------|

e|-------|-------|-------|-------|------------------------------------------|
B|-------|-------|-------|-------|-----three--------------------------------|
G|--9--9-|-------|-------|--7--7-|-----times--------------------------------|
D|--9--9-|--9--9-|--5--5-|--7--7-|------------------------------------------|
A|--7--7-|--9--9-|--5--5-|--5--5-|------------------------------------------|
E|-------|--7--7-|--3--3-|-------|------------------------------------------|

e|-------|-------|------|-------|-------------------------------------------|
B|-------|-------|------|-------|-------------------------------------------|
G|--9--9-|-------|------|-------|-------------------------------------------|
D|--9--9-|--9--9-|-5--5-|--7--7-|-------------------------------------------|
A|--7--7-|--9--9-|-5--5-|--7--7-|-------------------------------------------|
E|-------|--7--7-|-3--3-|--5--5-|-------------------------------------------|

e|-------|-------|-------|-------|-------------------------|----------------|
B|-------|-------|-------|-------|-------------------------|----------------|
G|--9--9-|-------|-------|--7--7-|-------------------------|----------------|
D|--9--9-|--9--9-|--5--5-|--7--7-|--9--99--9--99--9--99--9-|----------------|
A|--7--7-|--9--9-|--5--5-|--5--5-|--9--99--9--99--9--99--9-|----------------|
E|-------|--7--7-|--3--3-|-------|--7--77--7--77--7--77--7-|----------------|

e|--------------|--------------|--------------|--------------|--------------|
B|--------------|--------------|--------------|--------------|--------------|
G|--------------|--5--5--55--5-|--------------|--7--7--77--7-|--------------|
D|--2--2--22--2-|--5--5--55--5-|--5--5--55--5-|--7--7--77--7-|--------------|
A|--2--2--22--2-|--3--3--33--3-|--5--5--55--5-|--5--5--55--5-|--------------|
E|--------------|--------------|--3--3--33--3-|--------------|--------------|

e|--------------|--------------|--------------|--------------|--------------|
B|--------------|--------------|--------------|--------------|--------------|
G|--------------|--5--5--55--5-|--------------|--------------|--------------|
D|--2--2--22--2-|--5--5--55--5-|--5--5--55--5-|--7--7--77--7-|--------------|
A|--2--2--22--2-|--3--3--33--3-|--5--5--55--5-|--7--7--77--7-|--------------|
E|--------------|--------------|--3--3--33--3-|--5--5--55--5-|--------------|

e|-------|-------|-------|-------|------------------------------------------|
B|-------|-------|-------|-------|------------------------------------------|
G|--9--9-|-------|-------|--7--7-|------------------------------------------|
D|--9--9-|--9--9-|--5--5-|--7--7-|------------------------------------------|
A|--7--7-|--9--9-|--5--5-|--5--5-|------------------------------------------|
E|-------|--7--7-|--3--3-|-------|------------------------------------------|

e|-------|-------|-------|-------|------------------------------------------|
B|-------|-------|-------|-------|------------------------------------------|
G|--9--9-|-------|-------|-------|------------------------------------------|
D|--9--9-|--9--9-|--5--5-|--7--7-|------------------------------------------|
A|--7--7-|--9--9-|--5--5-|--7--7-|------------------------------------------|
E|-------|--7--7-|--3--3-|--5--5-|------------------------------------------|

e|-------|-------|-------|-------|-------------------------|----------------|
B|-------|-------|-------|-------|-------------------------|----------------|
G|--9--9-|-------|-------|--7--7-|-------------------------|----------------|
D|--9--9-|--9--9-|--5--5-|--7--7-|--9--99--9--99--9--99--9-|----------------|
A|--7--7-|--9--9-|--5--5-|--5--5-|--9--99--9--99--9--99--9-|----------------|
E|-------|--7--7-|--3--3-|-------|--7--77--7--77--7--77--7-|----------------|
[ Tab from: http://www.guitartabs.cc/tabs/g/green_day/holiday_tab_ver_16.html ]
e|-------|-------|-------|-------|------------------------------------------|
B|-------|-------|-------|-------|------------------------------------------|
G|-------|-------|--7----|--9----|------------------------------------------|
D|--2--2-|--5--5-|--7--7-|--9--9-|------------------------------------------|
A|--2--2-|--5--5-|--5--7-|--7--9-|------------------------------------------|
E|-------|--3--3-|-----5-|-----7-|------------------------------------------|

e|-------|-------|-------|----|---------------------------------------------|
B|-------|-------|-------|----|---------------------------------------------|
G|-------|-------|--7----|--9-|---------------------------------------------|
D|--2--2-|--5--5-|--7--7-|--9-|---------------------------------------------|
A|--2--2-|--5--5-|--5--7-|--7-|---------------------------------------------|
E|-------|--3--3-|-----5-|----|---------------------------------------------|

e|-------------------------------------------9---9-|------------------------|
B|--7--77--7--9--10---------------9--6-----7---7---|------------------------|
G|-------------------9--7--6--66--------6----------|------------------------|
D|-------------------------------------------------|------------------------|
A|-------------------------------------------------|------------------------|
E|-------------------------------------------------|------------------------|

e|-------------------------------------------13----14~-|--------------------|
B|--7--77--7--9--10---------------9----14--------------|--------------------|
G|-------------------9--7--6--66-----------------------|--------------------|
D|-----------------------------------------------------|--------------------|
A|-----------------------------------------------------|--------------------|
E|-----------------------------------------------------|--------------------|

e|--------------|--------------|--------------|--------------|--------------|
B|--------------|--------------|--------------|--------------|--------------|
G|--------------|--5--5--55--5-|--------------|--7--7--77--7-|--------------|
D|--2--2--22--2-|--5--5--55--5-|--5--5--55--5-|--7--7--77--7-|--------------|
A|--2--2--22--2-|--3--3--33--3-|--5--5--55--5-|--5--5--55--5-|--------------|
E|--------------|--------------|--3--3--33--3-|--------------|--------------|

e|--------------|--------------|--------------|--------------|--------------|
B|--------------|--------------|--------------|--------------|--------------|
G|--------------|--5--5--55--5-|--------------|--------------|--------------|
D|--2--2--22--2-|--5--5--55--5-|--5--5--55--5-|--7--7--77--7-|--------------|
A|--2--2--22--2-|--3--3--33--3-|--5--5--55--5-|--7--7--77--7-|--------------|
E|--------------|--------------|--3--3--33--3-|--5--5--55--5-|--------------|

e|-------|-------|-------|-------|------------------------------------------|
B|-------|-------|-------|-------|------------------------------------------|
G|--9--9-|-------|-------|--7--7-|------------------------------------------|
D|--9--9-|--9--9-|--5--5-|--7--7-|------------------------------------------|
A|--7--7-|--9--9-|--5--5-|--5--5-|------------------------------------------|
E|-------|--7--7-|--3--3-|-------|------------------------------------------|

e|-------|-------|------|-------|-------------------------------------------|
B|-------|-------|------|-------|-------------------------------------------|
G|--9--9-|-------|------|-------|-------------------------------------------|
D|--9--9-|--9--9-|-5--5-|--7--7-|-------------------------------------------|
A|--7--7-|--9--9-|-5--5-|--7--7-|-------------------------------------------|
E|-------|--7--7-|-3--3-|--5--5-|-------------------------------------------|

e|-------|-------|-------|-------|------------------------------------------|
B|-------|-------|-------|-------|------------------------------------------|
G|--9--9-|-------|-------|--7--7-|------------------------------------------|
D|--9--9-|--9--9-|--5--5-|--7--7-|------------------------------------------|
A|--7--7-|--9--9-|--5--5-|--5--5-|------------------------------------------|
E|-------|--7--7-|--3--3-|-------|------------------------------------------|

e|-------|-------|-------|----|-----|---------------------------------------|
B|-------|-------|-------|----|-----|---------------------------------------|
G|--9--9-|-------|--7----|--9-|-----|---------------------------------------|
D|--9--9-|--9--9-|--7--7-|--9-|--2~-|---------------------------------------|
A|--7--7-|--9--9-|--5--7-|--7-|--2~-|---------------------------------------|
E|-------|--7--7-|-----5-|----|-----|---------------------------------------|

| /  slide up
| \  slide down
| h  hammer-on
| p  pull-off
| ~  vibrato
| +  harmonic
| x  Mute note
============================================================================
Comments