Green Day - Holiday Chords & Tabs

 

Holiday Chords & Tabs

Green Day Chords & Tabs

Version: 14 Type: Tab 0 ratings
1 star 2 stars 3 stars 4 stars 5 stars
comments

Holiday Tab

Holiday by Green Day
Album: American Idiot
Tabber;KilllRoy

Accurate TAb. disagree? mail me at killl_roy@hotmail.com

INTRO-
e---------------------------------|
B----------9-9--------------------|
G--5-5-6-6-8-8-8--8-8-------------|
D--3-3-x-x-6-6-x--x-x-------------|
A------4-4-----6--6-6-------------|
E---------------------------------|

e----------------------------------|
B----------9-9---------------------|
G--5-5-6-6-8-8-8--8----------------|
D--3-3-x-x-6-6-x--x----------------|
A------4-4-----6--6----------------|
E----------------------------------|
this actually goes around the whole song

(this is another intro, suggested by feedbacks. thanks for the pointers guys)
INTRO(2nd version)-this one probably sounds better.
e--------------------------------------|
B--------------------------------------|
G--------------------------------------|
D-10-10-6-6/13-13-8--8-8---------------|
A-8--8--4-4/11-11-6--6-6---------------|
E--------------------------------------|

e--------------------------------------|
B--------------------------------------|
G--------------------------------------|
D-10-10-6-6/13-13-8--8-8---------------|
A-8--8--4-4/11-11-6--6-6---------------|
E--------------------------------------|

MAIN VERSE
e---------------------------------|
B---------------------------------|
G--5-5----------------------------|
D--3-3-6-6-----8--8-8-------------|
A------4-4-6-6-6--6-6-------------|
E----------4-4--------------------|

e---------------------------------|
B---------------------------------|
G--5-5----------------------------|
D--3-3-6-6-----8--8-8-------------|
A------4-4-6-6-6--6-6-------------|
E----------4-4--------------------|

e---------------------------------|
B---------------------------------|
G--5-5----------------------------|
D--3-3-6-6-----8--8-8-------------|
A------4-4-6-6-6--6-6-------------|
E----------4-4--------------------|

e---------------------------------|
B---------------------------------|
G--5-5----------------------------|
D--3-3-6-6-----5-5----------------|
A------4-4-6-6-3-3----------------|
E----------4-4--------------------|

e---------------------------------|
B---------------------------------|
G--5-5----------------------------|
D--3-3-6-6-----8-8--5-5-5-5-5-5-5-|
A------4-4-6-6-6-6--3-3-3-3-3-3-3-|
E----------4-4--------------------|

e---------------------------------|
B---------------------------------|
G--5-5----------------------------|
D--3-3-6-6-----8--8-8-------------|
A------4-4-6-6-6--6-6-------------|
E----------4-4--------------------|

e---------------------------------|
B---------------------------------|
G--5-5----------------------------|
D--3-3-6-6-----5-5----------------|
A------4-4-6-6-3-3----------------|
E----------4-4--------------------|

e---------------------------------|
B---------------------------------|
G--5-5----------------------------|
D--3-3-6-6-----8--8-8-5-5-5-5-5-5-|
A------4-4-6-6-6--6-6-3-3-3-3-3-3-|
E----------4-4--------------------|

CHORUS
e-------------------------------------|
B-------------------------------------|
G-------------------------------------|
D---------6-6-6-6---------8-8-8-8-----|
A-3-3-3-3-4-4-4-4-6-6-6-6-6-6-6-6-----|
E-1-1-1-1---------4-4-4-4-------------|
"..id beg to dream and differ.."
[ Tab from: http://www.guitartabs.cc/tabs/g/green_day/holiday_tab_ver_14.html ]
e-------------------------------------|
B-------------------------------------|
G-------------------------------------|
D---------6-6-6-6---------5-5-5-5-5---|
A-3-3-3-3-4-4-4-4-6-6-6-6-3-3-3-3-3---|
E-1-1-1-1---------4-4-4-4-------------|

e---------------------------------|
B----------9-9--------------------|
G--5-5-6-6-8-8-8--8-8-------------|
D--3-3-x-x-6-6-x--x-x-------------|
A------4-4-----6--6-6-------------|
E---------------------------------|

e----------------------------------|
B----------9-9---------------------|
G--5-5-6-6-8-8-8--8----------------|
D--3-3-x-x-6-6-x--x----------------|
A------4-4-----6--6----------------|
E----------------------------------|

e---------------------------------|
B---------------------------------|
G--5-5----------------------------|
D--3-3-6-6-----8--8-8-------------|
A------4-4-6-6-6--6-6-------------|
E----------4-4--------------------|

e---------------------------------|
B---------------------------------|
G--5-5----------------------------|
D--3-3-6-6-----5-5----------------|
A------4-4-6-6-3-3----------------|
E----------4-4--------------------|

e---------------------------------|
B---------------------------------|
G--5-5----------------------------|
D--3-3-6-6-----8-8--5-5-5-5-5-5-5-|
A------4-4-6-6-6-6--3-3-3-3-3-3-3-|
E----------4-4--------------------|

e---------------------------------|
B---------------------------------|
G--5-5----------------------------|
D--3-3-6-6-----8--8-8-------------|
A------4-4-6-6-6--6-6-------------|
E----------4-4--------------------|

e---------------------------------|
B---------------------------------|
G--5-5----------------------------|
D--3-3-6-6-----5-5----------------|
A------4-4-6-6-3-3----------------|
E----------4-4--------------------|

e---------------------------------|
B---------------------------------|
G--5-5----------------------------|
D--3-3-6-6-----8-8--5-5-5-5-5-5-5-|
A------4-4-6-6-6-6--3-3-3-3-3-3-3-|
E----------4-4--------------------|

CHORUS
e-------------------------------------|
B-------------------------------------|
G-------------------------------------|
D---------6-6-6-6---------8-8-8-8-----|
A-3-3-3-3-4-4-4-4-6-6-6-6-6-6-6-6-----|
E-1-1-1-1---------4-4-4-4-------------|
"..id beg to dream and differ.."

e-------------------------------------|
B-------------------------------------|
G-------------------------------------|
D---------6-6-6-6---------5-5-5-5-5---|
A-3-3-3-3-4-4-4-4-6-6-6-6-3-3-3-3-3---|
E-1-1-1-1---------4-4-4-4-------------|

.."ON HOLIDAY~!!!"
BRIDgE
e----------------------------|
B----------------------------|
G----------------------------|
D---------6---8-5------------|
A-3-3-6-6-4-8-6-3------------|
E-1-1-4-4---6----------------|

e----------------------------|
B----------------------------|
G-------------5--------------|
D---------8-5-3--------------|
A-3-3-6-6-6-3----------------|
E-1-1-4-4--------------------|

SOLO
e------------------------------------8-8-8--|
B--6--6-6-8-9------------8----------6-6-----|
G-------------8-6-5--5-5---9-5--5-5---------|
D-------------------------------------------|
A-------------------------------------------|
E-------------------------------------------|

e--------------------------8-12---------13--|
B--6--6-6-8-9------------8------------------|
G-------------8-6-5--5-5--------------------|
D-------------------------------------------|
A-------------------------------------------|
E-------------------------------------------|

*** "the representative of California has the floor..."

the rest are repeats, you'll get it..i know i did ;-)
Comments