Green Day - Holiday (live) Chords & Tabs

 

Holiday (live) Chords & Tabs

Green Day Chords & Tabs

Version: 1 Type: Tab 5 ratings
1 star 2 stars 3 stars 4 stars 5 stars
comments

Holiday (live) Tab

    When you play Holiday in a live situation you must load up all guitars with at
least a little distortion. If you don't it will sound very weak. 


 
  Intro Riff                                   
e|--8---8---8-----x-x-x-----x---x---x-----x-x-x----------|
B|--9---9---9-----6-6-6-----13--13--13----8-8-8----------|
G|--10--10--10----6-6-6-----13--13--13----8-8-8----------| Repeat at least 4 Times
D|--10--10--10----6-6-6-----13--13--13----8-8-8----------|
A|--8---8---8-----4-4-4-----11--11--11----6-6-6----------|
E|-------------------------------------------------------|



  Main Riff                                   
e|---------------------------------------------------|
B|---------------------------------------------------|
G|--10--10--10----6-6-6---------------8-8-8----------| 
D|--10--10--10----6-6-6----6-6-6------8-8-8----------|
A|--8---8---8-----4-4-4----6-6-6------6-6-6----------|
E|-------------------------4-4-4---------------------|



e|---------------------------------------------------|
B|---------------------------------------------------|
G|--10--10--10----6-6-6-------------5-5-5------------| 
D|--10--10--10----6-6-6----6-6-6----5-5-5------------|
A|--8---8---8-----4-4-4----6-6-6----3-3-3------------|
E|-------------------------4-4-4---------------------|



e|-----------------------------------------------------------------------------|
B|-----------------------------------------------------------------------------|
G|--10--10--10----6-6-6---------------8-8-8------------------------------------| 
D|--10--10--10----6-6-6----6-6-6------8-8-8-----10-10-10-10-10-10-10-10--------|
A|--8---8---8-----4-4-4----6-6-6------6-6-6-----10-10-10-10-10-10-10-10--------|
E|-------------------------4-4-4----------------8--8--8--8--8--8--8--8---------|


[ Tab from: http://www.guitartabs.cc/tabs/g/green_day/holiday_live_tab.html ]
  Chorus
e|-----------------------------------------------------|
B|-----------------------------------------------------|
G|---------------6-6-6-6-------------------8-8-8-8-----| 
D|-3-3-3-3-------6-6-6-6------6-6-6-6------8-8-8-8-----|
A|-3-3-3-3-------4-4-4-4------6-6-6-6------6-6-6-6-----|
E|-1-1-1-1--------------------4-4-4-4------------------|



e|-----------------------------------------------------|
B|-----------------------------------------------------|
G|---------------6-6-6-6-------------------5-5-5-5-5---| 
D|-3-3-3-3-------6-6-6-6------6-6-6-6------5-5-5-5-5---|
A|-3-3-3-3-------4-4-4-4------6-6-6-6------3-3-3-3-3---|
E|-1-1-1-1--------------------4-4-4-4------------------|



 
 Bridge
e|---------------------------------------------------------------|
B|---------------------------------------------------------------|
G|-----------------6-----8------------------------8------10------|
D|-3-3-3---6-6-6---6--8--8--10----3-3-3---6-6-6---8--10--10------|  Repeat at least 2 Times
A|-3-3-3---6-6-6---4--8--6--10----3-3-3---6-6-6---6--10--8-------|
E|-1-1-1---4-4-4------6-----8-----1-1-1---4-4-4------8-----------|



  Solo
e|-----------------------------------8---8--------------------------|
B|---6-6-6-8-9--------------8-5----6---6----6-6-6-8-9---------------|
G|--------------8-6-5-5-5-5-----5----------------------8-6-5-5-5-5--|
D|------------------------------------------------------------------|
A|------------------------------------------------------------------|
E|------------------------------------------------------------------|


e|-3-3-3-3--8-8-8-8--12-12-12-12-12-12-12-12-12-13---|
B|---------------------------------------------------|
G|---------------------------------------------------|
D|---------------------------------------------------|
A|---------------------------------------------------|
E|---------------------------------------------------|




That is about it. I hope you liked it. ENJOY!


                                                             Tabbed by AmericanIdiot911












Comments