Green Day - Holiday Chords & Tabs

 

Holiday Chords & Tabs

Green Day Chords & Tabs

Version: 4 Type: Bass Tab 0 ratings
1 star 2 stars 3 stars 4 stars 5 stars
comments

Holiday Bass Tab

   
-------------------------------------------------------------------------------
				GREEN DAY - HOLIDAY (AMERICAN IDIOT)
-------------------------------------------------------------------------------

[ Tabber: LUIZ MANZANO (BRASIL) ]


Intro (Guitar)

Riff_1
G|-----------------|
D|-----------------|
A|0-88-0-44-0--0-66|
E|-----------44----|

Riff_2
G|-----------------------------------------------|
D|-----------------------------------------------|
A|0-88-0-44-0--0-33-0-88-0-44-0--0-66-0-333333333|
E|-----------44----------------44----------------|

Chorus(1)
G|---------------------------------5|
D|----------------------------------|
A|----4444----6666----4444----33333-|
E|1111----4444----1111----4444------|

Chorus(2)
G|----------------------------------|
D|----------------------------------|
A|----4444----6666----4444----333333|
E|1111----4444----1111----4444------|

Riff_3
G|---------------------------------|
D|---------------------------------|
A|---------4-6-----------6-8-------|
E|11-3/4-44-6-8\11-3/4-44-8-10\1---|

Bass(on guitar solo)
G|---------------------------------------------------|
D|---------------------------------------------------|
A|4444----3333-88-66-4444----3333-3333-3/15-15(8x)---|
E|----4444---------------4444------------------------|
[ Tab from: http://www.guitartabs.cc/tabs/g/green_day/holiday_btab_ver_4.html ]
Bass Solo
G|--------------------------------------|
D|--------------------------------------|
A|------------4-6----------------6-8----|
E|11x-3/4x-44x-6-8\1-11x-3/4x-44x-8-10\1|

Bass Solo (final)
G|------------------------------------------------------------------|
D|------------------------------------------------------------------|
A|------------4-6----------------6-8-8\3-3333-3333-3333-3/15--15(4x)|
E|11x-3/4x-44x-6-8\1-11x-3/4x-44x-8---------------------------------|

Chorus (final)
G|-----------------------------------------------------------------------------------------|
D|-----------------------------------------------------------------------------------------|
A|----4444----6666----4444----3333----4444----6666----4444----3333-3333-3333 3/15-15(4x)---|
E|1111----4444----1111----4444----1111----4444----1111----4444-----------------------------|

Riff_final
G|-------------------------------------------------------------------------|
D|-------------------------------------------------------------------------|
A|0-88-0-44-0--0-66-0-88-0-44-0--0-66-0-88-0-44-0--0-66-0-88-0-44-6-8------|
E|-----------44----------------44----------------44----------------8-10\1-1|

Song Order:
Intro Guitar

Riff_1 3x
Riff_2 1x
Riff_1 1x
Riff_2 1x
Chorus(1) 1x
Riff_1 1x
Riff_2 1x
Riff_1 1x
Riff_2 1x
Chorus(2) 1x
Riff_3 2x
Bass(on guitar solo) 1x
Bass Solo 5x
Bass Solo (final) 1x
Chorus 1x
Chorus (final) 1x
Riff_final 1x

GREEN DAY RULES


| /  slide up
| \  slide down
| x  Mute note
===============================================================================
Comments