Green Day - Holiday Chords & Tabs

 

Holiday Chords & Tabs

Green Day Chords & Tabs

Version: 13 Type: Bass Tab 0 ratings
1 star 2 stars 3 stars 4 stars 5 stars
comments

Holiday Bass Tab

G'day, it took me ages to get it this perfect so check it out and rate well!

----------------------------------------------------------
                  Green Day - Holiday
----------------------------------------------------------

Intro/Verse
|---------------------------|
|---------------------------|
|--8-8-84-4-4------6-66-6---|  X 3
|-------------4-4-4---------|

|--------------------------|
|--------------------------|
|--8-8-8-4-4-4-----3-33-3--|  X 1
|-------------4-4-4--------|

|----------------------------------------|
|----------------------------------------|
|--8-8-84-4-4-----6-66-6-3-33-33-33-33---|  X 1
|------------4-4-4-----------------------|

|--------------------------|
|--------------------------|       x1
|--8-8-84-4-4------6-66-6--|  
|-------------4-4-4--------|

|--------------------------|
|--------------------------|      x1
|--8-8-8-4-4-4-----3-33-3--|  
|-------------4-4-4--------|

|----------------------------------------|
|----------------------------------------|
|--8-8-84-4-4-----6-66-6-3-33-33-33-33---|  X 1
|------------4-4-4-----------------------|


Chorus  
|----------------------------------------|
|----------------------------------------|
|----------44-4-4-----------6-66-66-66-6-|
|--1-1-1------------4-4-44---------------|
                                                
|-----------------------------------------|
|-----------------------------------------|
|----------44-4-4-----------3-33-33-33-33-|
|--1-1-1------------4-4-44----------------|

(Wait after guitar finishes play verse twice)
Verse X2       
|--------------------------|
|--------------------------|       x1
|--8-8-84-4-4------6-66-6--|  
|-------------4-4-4--------|

|--------------------------|
|--------------------------|      x1
|--8-8-8-4-4-4-----3-33-3--|  
|-------------4-4-4--------|

|----------------------------------------|
|----------------------------------------|
|--8-8-84-4-4-----6-66-6-3-33-33-33-33---|  X 1
|------------4-4-4-----------------------|
[ Tab from: http://www.guitartabs.cc/tabs/g/green_day/holiday_btab_ver_13.html ]
Chorus  
|----------------------------------------|
|----------------------------------------|
|----------44-4-4-----------6-66-66-66-6-|
|--1-1-1------------4-4-44---------------|
                                                
|-----------------------------------------|
|-----------------------------------------|
|----------44-4-4-----------3-33-33-33-33-|
|--1-1-1------------4-4-44----------------|






Bridge
|------------------------------------------------------------|
|---------------1-------------1---3--------------------------|
|-----------4-1---3-------------3---h3///--------------------|  X 2
|--1-1-34-4----------1-1-34-4--------------------------------|

|-----------------------------------|
|-----------------------------------|
|----------4-4-4-4-4-------8-8-4-4--|
|--1-1-11-----------4-4-4-----------|
                                                
|------------------------------------------------------|
|------------------------------------------------------|
|----------4-4-4-4-----------3-33-33-33-33-3333333333--|
|--1-1-11-----------4-4-44-----------------------------|


Bass Solo
|------------------------------------------|
|---------------1-------------1---3--------|
|-----------4-1---3-------------3---h3\\\--|  X 10
|--1-1-34-4----------1-1-34-4--------------|

|------------------------------------------------------------|
|------------------------------------------------------------|
|--\33333333--\333333333-------------------------------------|  X 1
|------------------------------------------------------------|

Chorus
|----------------------------------------|
|----------------------------------------|
|----------44-4-4-----------6-66-66-66-6-|
|--1-1-1------------4-4-44---------------|  
                                             x2    
|-----------------------------------------|
|-----------------------------------------|
|----------44-4-4-----------3-33-33-33-33-|
|--1-1-1------------4-4-44----------------|








Ending
|---------------------------|
|---------------------------|
|--8-8-84-4-4------6-66-6---|  X 3
|-------------4-4-4---------|

|--------------------------|
|----------------3---------|
|--8-8-84-4--6\3-----------|  X 1
|-----------------1~-------|

Comments