Green Day - Hitchin A Ride Chords & Tabs

 

Hitchin A Ride Chords & Tabs

Green Day Chords & Tabs

Version: 9 Type: Tab 0 ratings
1 star 2 stars 3 stars 4 stars 5 stars
comments

Hitchin A Ride Tab

-------------------------------------------------------------------------------
			   HITCHIN A RIDE - Green Day
-------------------------------------------------------------------------------

Tabbed by: Jacob Fry
Email: jacob_1313@hotmail.com

Tuning: normal
 x  Mute note


ok, this is my first tab but ive listened to the song a lot and i know this is right.
all of the other tabs ive seen for this song were slightly wrong with the solo
and outro and ive fixed that. this doesnt give the exact timing but its basically
like its written and in the solo just strum like crazy in time with the song.


starts off with a violin intro.....

Verse
e|---------------------------------------------------------------------|
B|---------------------------------------------------------------------|
G|---------------------------------------------------------------------|
D|-99-X-33-X-66-X-5555-------------------------------------------------|
A|-99-X-33-X-66-X-5555-------------------------------------------------|
E|-77-X-55-X-44-X-3333-------------------------------------------------|

Chorus:
e|---------------------------------------------------------------------|
B|---------------------------------------------------------------------|
G|---------------------------------------------------------------------|
D|-2222222--4444444-99-X-77-X-66-X-5555--2222222-4444------------------|
A|-2222222--4444444-99-X-77-X-66-X-5555--2222222-4444------------------|
E|-0000000--2222222-77-X-55-X-44-X-3333--0000000-2222------------------|
[ Tab from: http://www.guitartabs.cc/tabs/g/green_day/hitchin_a_ride_tab_ver_9.html ]
Solo:
e|-----------------------------------------------------------------------------|
B|-----------------------------------------------------------------------------|
G|-4444444--7777777--4444444-------------------4444444--7777777--9999910101010-|
D|-4444444--7777777--4444444--5555555-4444444--4444444--7777777--9999910101010-|
A|-2222222--5555555--2222222--5555555-4444444--2222222--5555555--777778-8-8-8--|
E|----------------------------3333333-2222222----------------------------------|

e|---------------------------------------------------------------------------|
B|---------------------------------------------------------------------------|
G|-9-7---7-9-7---7-9-7-------7-------7-9-7---7-9-7-999910101010--------------|
D|-9-7-9-7-9-7-9-7-9-7-9-7-9-7-9-7-9-7-9-7-9-7-9-7-999910101010--------------|
A|-7-5-9-5-7-5-9-5-7-5-9-7-9-5-9-7-9-5-7-5-9-5-7-5-77778-8-8-8---------------|
E|-----7-------7-------7-5-7---7-5-7-------7---------------------------------|

Outro: (this is also the rythm under the solo)
e|---------------------------------------------------------------------------|
B|---------------------------------------7-----------------------------------|
G|----77---------------------------------8-----------------------------------|
D|-99-77-55-44---------------------------9-----------------------------------|
A|-99-55-55-44---------------------------9-----------------------------------|
E|-77----33-22---------------------------7-----------------------------------|

i think the solo starts over near the end of the song but it doesnt go all the
way through, its very quiet as well.
===============================================================================
Comments