Green Day - Hitchin A Ride Chords & Tabs

 

Hitchin A Ride Chords & Tabs

Green Day Chords & Tabs

Version: 2 Type: Tab 11 ratings
1 star 2 stars 3 stars 4 stars 5 stars
comments

Hitchin A Ride Tab

hitchin a ride
green day
nimrod & international super-hits
tabbed by: punkass64

I heard GD play this song live and it was awesome. The solo was really good. This is my favorite GD song. SO PLAY IT RIGHT! 



 verse (turned down) 


e|---------------------------||-------------------------------------|
B|----------------(x 9)------||-------------------------------------|
G|---------------------------||-------------------------------------|
D|---------------------------||-------------9-9-9-9-9-9-7-7-7-7-7-7-|
A|---------------------------||-------------9-9-9-9-9-9-7-7-7-7-7-7-|
E|-7-7-x-5-5-x-4-4-x-3-3-3-3-||-7-7-x-5-5-x-7-7-7-7-7-7-5-5-5-5-5-5-|



pre-chorus (palm mute)

e|------------------------||----------------|
B|------(x 4)-------------||----------------|
G|------------------------||----------------|
D|-9-9--7-7--6-6--5-5-5-5-||-9-9--7-7--6-6--|
A|-9-9--7-7--6-6--5-5-5-5-||-9-9--7-7--6-6--|
E|-7-7--5-5--4-4--3-3-3-3-||-7-7--6-6--5-5--|

       
chorus


e|------------------------------------------------------------|
B|------------------------------------------------------------|
G|------------------------------------------------------------|
D|-2-2-2-2--4-4-4-4--9-9--7-7--6-6--5-5-5-5--2-2-2-2--4-4-4-4-|
A|-2-2-2-2--4-4-4-4--9-9--7-7--6-6--5-5-5-5--2-2-2-2--4-4-4-4-|
E|-0-0-0-0--2-2-2-2--7-7--5-5--4-4--3-3-3-3--0-0-0-0--2-2-2-2-|


short verse

e|------------------------||---------------|
B|--------(x 4)-----------||---------------|
G|------------------------||---------------|
D|------------------------||-9-9--7-7--6-6-|
A|------------------------||-9-9--7-7--6-6-|
E|-7-7--5-5--4-4--3-3-3-3-||-7-7--5-5--5-5-|



 solo: lead (wah-wah)
[ Tab from: http://www.guitartabs.cc/tabs/g/green_day/hitchin_a_ride_tab_ver_2.html ]
e|-----------------------------------------------------------------------------------------------------------|
B|-----------------------------------------------------------------------------------------------------------|
G|-----------------2-2-2-2-2-2-2-2---------------------------------------------------------------------------|
D|-4-4-4-4-4-4-4-4-----------------4-4-4-4-4-4-4-4-0-0-0-0---------4-4-4-4-4-4-4-4-7-7-7-7-7-7-7-7-9 bend up-|
A|---------------------------------------------------------4-4-4-4-------------------------------------------|
E|-----------------------------------------------------------------------------------------------------------|


e|-------------------------------------------------------------|
B|-------------------------------------------------------------|
G|-------------------------------------------------------------|
D|-9-9-7---7-9-7---7-9-7-------7-------7-9-7---7-9-7-9 bend up-|
A|-------9-------9-------9-7-9---9-7-9-------9-----------------|
E|-------------------------------------------------------------|


solo: rhythm (plays background with bass)

e|----------------------|
B|----------(x 7)-------|
G|----------------------| 
D|-9-9--11-11--6-6--5-5-|
A|-9-9--11-11--6-6--5-5-|
E|-7-7--9--9---4-4--3-3-|


outro: lead

e|----------------------||-------------------------------------------------------------------|
B|---------(x 4)--------||-------------------------------------------------------------------|
G|----------------------||---------2-(x 8)---------------------------------------------------|
D|-9-9--11-11--6-6--5-5-||-4-(x 8)---------4-(x 8)-0-0-0-0---------4-(x 8)-7-(x 8)-9 bend up-|
A|-9-9--11-11--6-6--5-5-||---------------------------------4-4-4-4---------------------------|
E|-7-7--9--9---4-4--3-3-||-------------------------------------------------------------------|



outro: rhythm

e|----------------------|
B|----------(x 7)-------|
G|----------------------| 
D|-9-9--11-11--6-6--5-5-|
A|-9-9--11-11--6-6--5-5-|
E|-7-7--9--9---4-4--3-3-|



procedure
verse
pre-chorus
verse
pre-chorus
chorus
short verse
solos
chorus
outros




Comments