Green Day - Hitchin A Ride Chords & Tabs

 

Hitchin A Ride Chords & Tabs

Green Day Chords & Tabs

Version: 11 Type: Tab 0 ratings
1 star 2 stars 3 stars 4 stars 5 stars
comments

Hitchin A Ride Tab

Green Day-Hitchin' a Ride

Tabbed by Edbert

it's funny because every other tab is pretty much wrong
this is a great song and it shouldn't be butchered

any questions
Email: mac3214@earthlink.net
AIM: mac02546

Tuning: regular

intro after violin bit + singin part
hey mister...
e|-------------------------------------------------------------------------|
B|-------------------------------------------------------------------------|
G|-------------------------------------------------------------------------|
D|-------------------------------------------------------------------------|
A|-------------------------------------------------------------------------|
E|--8--8---6--6---5--5---4-4-4-4-------------------------------------------|
play 10x

last time a slight change
e|-------------------------------------------------------------------------|
B|-------------------------------------------------------------------------|
G|-------------------------------------------------------------------------|
D|-------------------------------------------------------------------------|
A|----------------7-7-7-7--6-6-6-6-----------------------------------------|
E|--8--8---6--6---5-5-5-5--4-4-4-4-----------------------------------------|

then the non-singing bit
e|-------------------------------------------------------------------------|
B|-------------------------------------------------------------------------|
G|-------------------------------------------------------------------------|
D|--10--10---8--8---7--7---6-6-6-6-----------------------------------------|
A|--10--10---8--8---7--7---6-6-6-6-----------------------------------------|
E|---8---8---6--6---5--5---4-4-4-4-----------------------------------------|
play 4x

last time a slight change
e|-------------------------------------------------------------------------|
B|-------------------------------------------------------------------------|
G|-------------------------------------------------------------------------|
D|--10--10---8--8---7--7---------------------------------------------------|
A|--10--10---8--8---7--7---------------------------------------------------|
E|---8---8---6--6---5--5---------------------------------------------------|

singing bit again
cold turkey's..
e|-------------------------------------------------------------------------|
B|-------------------------------------------------------------------------|
G|-------------------------------------------------------------------------|
D|-------------------------------------------------------------------------|
A|-------------------------------------------------------------------------|
E|--8--8---6--6---5--5---4-4-4-4-------------------------------------------|
play 8x

last time a slight change
e|-------------------------------------------------------------------------|
B|-------------------------------------------------------------------------|
G|-------------------------------------------------------------------------|
D|-------------------------------------------------------------------------|
A|----------------7-7-7-7--6-6-6-6-----------------------------------------|
E|--8--8---6--6---5-5-5-5--4-4-4-4-----------------------------------------|

then the non-singing bit again
e|-------------------------------------------------------------------------|
B|-------------------------------------------------------------------------|
G|-------------------------------------------------------------------------|
D|--10--10---8--8---7--7---6-6-6-6-----------------------------------------|
A|--10--10---8--8---7--7---6-6-6-6-----------------------------------------|
E|---8---8---6--6---5--5---4-4-4-4-----------------------------------------|
play 4x
[ Tab from: http://www.guitartabs.cc/tabs/g/green_day/hitchin_a_ride_tab_ver_11.html ]
last time a slight change
e|-------------------------------------------------------------------------|
B|-------------------------------------------------------------------------|
G|-------------------------------------------------------------------------|
D|--10--10---8--8---7--7---------------------------------------------------|
A|--10--10---8--8---7--7---------------------------------------------------|
E|---8---8---6--6---5--5---------------------------------------------------|

then
troubled times...
e|-------------------------------------------------------------------------|
B|-------------------------------------------------------------------------|
G|-------------------------------------------------------------------------|
D|--3-3-3-3--5-5-5-5---10-10--8-8--7-7--6-6---3-3-3-3--5-5-5-5-------------|
A|--3-3-3-3--5-5-5-5---10-10--8-8--7-7--6-6---3-3-3-3--5-5-5-5-------------|
E|--1-1-1-1--3-3-3-3----8--8--6-6--5-5--4-4---1-1-1-1--3-3-3-3-------------|
only 1x

singing bit again
there's a drought...
e|-------------------------------------------------------------------------|
B|-------------------------------------------------------------------------|
G|-------------------------------------------------------------------------|
D|-------------------------------------------------------------------------|
A|-------------------------------------------------------------------------|
E|--8--8---6--6---5--5---4-4-4-4-------------------------------------------|
play 5x, then pause

then rhythm w/solo
S#!t!...
e|-------------------------------------------------------------------------|
B|-------------------------------------------------------------------------|
G|---------8-8-------------------------------------------------------------|
D|--10-10--8-8--6-6--5-5---------------------------------------------------|
A|--10-10--6-6--6-6--5-5---------------------------------------------------|
E|---8--8-------4-4--3-3---------------------------------------------------|
play 8x

then
troubled times...
e|-------------------------------------------------------------------------|
B|-------------------------------------------------------------------------|
G|-------------------------------------------------------------------------|
D|--3-3-3-3--5-5-5-5---10-10--8-8--7-7--6-6---3-3-3-3--5-5-5-5-------------|
A|--3-3-3-3--5-5-5-5---10-10--8-8--7-7--6-6---3-3-3-3--5-5-5-5-------------|
E|--1-1-1-1--3-3-3-3----8--8--6-6--5-5--4-4---1-1-1-1--3-3-3-3-------------|
only 1x

then this again
e|-------------------------------------------------------------------------|
B|-------------------------------------------------------------------------|
G|---------8-8-------------------------------------------------------------|
D|--10-10--8-8--6-6--5-5---------------------------------------------------|
A|--10-10--6-6--6-6--5-5---------------------------------------------------|
E|---8--8-------4-4--3-3---------------------------------------------------|
play 6x

then the outro
e|-------------------------------------------------------------------------|
B|-------------------------------------------------------------------------|
G|-------------------------------------------------------------------------|
D|--10--10---8--8---7--7---------------------------------------------------|
A|--10--10---8--8---7--7---------------------------------------------------|
E|---8---8---6--6---5--5---------------------------------------------------|

then this bit
e|-------4-----------------------------------------------------------------|
B|------4------------------------------------------------------------------|
G|-----4-------------------------------------------------------------------|
D|----4--------------------------------------------------------------------|
A|---2---------------------------------------------------------------------|
E|--2----------------------------------------------------------------------|
Comments