Green Day - Hitchin A Ride Chords & Tabs

 

Green Day Chords & Tabs

Version: 1 Type: Tab 18 ratings
1 star 2 stars 3 stars 4 stars 5 stars
comments

Hitchin A Ride Tab

Hitchin a ride
Green Day
Nimrod

Intro and Verse
E|-----------------|-----------------|-----------------|-----------------|
B|-----------------|-----------------|-----------------|-----------------|
G|-----------------|-----------------|-----------------|-----------------|
D|-9---9---7---7---|-6---6---5-5-5-/-|-9---9---7---7---|-6---6---5-5-5-/-|
A|-9---9---7---7---|-6---6---5-5-5-/-|-9---9---7---7---|-6---6---5-5-5-/-|
E|-7---7---5---5---|-4---4---3-3-3-/-|-7---7---5---5---|-4---4---3-3-3-/-|

Rhythm Fill 1
E|-----------------|
B|-----------------|
G|-----------------|
D|-6-6-6-----------|
A|-6-6-6-----------|
E|-4-4-4-----------|

Chorus
E|-----------------|-----------------|-----------------|-----------------|
B|-----------------|-----------------|-----------------|-----------------|
G|-----------------|-----------------|-----------------|-----------------|
D|-2---2---2---2-4-|---4-4---4---4-4-|-9---9---7---7---|-6---6---5---5---|
A|-2---2---2---2-4-|---4-4---4---4-4-|-9---9---7---7---|-6---6---5---5---|
E|-0---0---0---0-2-|---2-2---2---2-2-|-7---7---5---5---|-4---4---3---3---|

Solo:
E|-------------------------|-------------------------|
B|-12-12-12-12-12-12-12-12-|-15-15-15-15-15-15-15-15-|
G|-------------------------|-------------------------|
D|--9--9--9--9--9--9--9--9-|-12-12-12-12-12-12-12-12-|
A|-------------------------|-------------------------|
E|-------------------------|-------------------------|

E|-------------------------|-------------------------|
B|-12-12-12-12-12-12-12-12-|-17-17-17-17-15-15-15-15-|
G|-------------------------|-------------------------|
D|--9--9--9--9--9--9--9--9-|-14-14-14-14-12-12-12-12-|
A|-------------------------|-------------------------|
E|-------------------------|-------------------------|
[ Tab from: http://www.guitartabs.cc/tabs/g/green_day/hitchin_a_ride_tab.html ]
E|-------------------------|-------------------------|
B|-12-12-12-12-12-12-12-12-|-15-15-15-15-15-15-15-15-|
G|-------------------------|-------------------------|
D|--9--9--9--9--9--9--9--9-|-12-12-12-12-12-12-12-12-|
A|-------------------------|-------------------------|
E|-------------------------|-------------------------|

E|-------------------------|-------------------------|
B|-17-17-17-17-17-17-17-17-|-17-17-17-17-17-17-17-17-|
G|-------------------------|-------------------------|
D|-14-14-14-14-14-14-14-14-|-14-14-14-14-14-14-14-14-|
A|-------------------------|-------------------------|
E|-------------------------|-------------------------|
   gradual bend-------------------------------------|

E|---------------------|---------------------|---------------------|
B|-17---15---12---15---|-17---15---12---15---|-17---15---12---15---|
G|---------------------|---------------------|---------------------|
D|-14---12----9---12---|-14---12----9---12---|-14---12----9---12---|
A|---------------------|---------------------|---------------------|
E|---------------------|---------------------|---------------------|

E|---------------------|---------------------|---------------------|
B|-17---15---12---10---|-12---15---17---15---|-12---15---17---15---|
G|---------------------|---------------------|---------------------|
D|-14---12----9----7---|--9---12---14---12---|--9---12---14---12---|
A|---------------------|---------------------|---------------------|
E|---------------------|---------------------|---------------------|

E|-------------------------|-------------------------|
B|-17-17-17-17-17-17-17-17-|-17-17-17-17-17-17-17-17-|
G|-------------------------|-------------------------|
D|-14-14-14-14-14-14-14-14-|-14-14-14-14-14-14-14-14-|
A|-------------------------|-------------------------|
E|-------------------------|-------------------------|
   gradual bend-------------------------------------|

Outro
E|-----------------|-----------------|-----------------|-----------------|
B|-----------------|-----------------|-----------------|-----------------|
G|---------7---7---|-----------------|---------7---7---|-----------------|
D|-9---9---7---7---|-5---5---4-4-4-/-|-9---9---7---7---|-5---5---4-4-4-/-|
A|-9---9---5---5---|-5---5---4-4-4-/-|-9---9---5---5---|-5---5---4-4-4-/-|
E|-7---7-----------|-3---3---2-2-2-/-|-7---7-----------|-3---3---2-2-2-/-|





Comments