Green Day - Hitchin A Ride Chords & Tabs

 

Hitchin A Ride Chords & Tabs

Green Day Chords & Tabs

Version: 5 Type: Bass Tab 0 ratings
1 star 2 stars 3 stars 4 stars 5 stars
comments

Hitchin A Ride Bass Tab

verse
G|-----------------------------------
D|-----------------------------------
A|-----------------------------------
E|-77--55--44--33--------------------
[ Tab from: http://www.guitartabs.cc/tabs/g/green_day/hitchin_a_ride_btab_ver_5.html ]
Troubled times
G|-----------------------------------
D|-----------------------------------
A|-----------------------------------
E|--0000--2222---77--55--44--33------

end and guitar solo
G|-----------------------------------
D|-----------------------------------
A|------55---------------------------
E|--77------44--33------------------- X8
Comments