Green Day - Hearts Collide Chords & Tabs

 

Hearts Collide Chords & Tabs

Green Day Chords & Tabs

Version: 3 Type: Tab 0 ratings
1 star 2 stars 3 stars 4 stars 5 stars
comments

Hearts Collide Tab

This is the solo for the b-side of 21st Century Breakdown, "Hearts Collide." I haven't
it on any tabs on the internet yet, so I thought I'd get the ball rolling. It's not
right, so maybe one of you guys can pick this up and improve it. I didn't really write 
the exact rhythm or where you're supposed to bend notes because it leaves you with more room
personalize the solo. And if you want to play it exactly in sync with the song, you can 
to the song and figure it out yourself because I know you're smart enough to.
Anyway, here it is.
[ Tab from: http://www.guitartabs.cc/tabs/g/green_day/hearts_collide_tab_ver_3.html ]
|------------------------------|
|------------------------------|
|-4~6-8-4-1--------------------|
|------------------------------|
|----------8~--5-9-12-9-11-9-7~|
|----------8~------------------|

|-------------8~------------------9~|
|-------------8~-5-9-12-9-11-11-12--|
|-4-4-6-4-3-1-----------------------|
|-----------------------------------|
|-----------------------------------|
|-----------------------------------|

Once again, I know it's not exactly right, but if you know how to play it make a
version and post it you lazy bastard. Go show everyone you're smarter than me.
Comments