Green Day - Having A Blast Chords & Tabs

 

Having A Blast Chords & Tabs

Green Day Chords & Tabs

Version: 4 Type: Tab 0 ratings
1 star 2 stars 3 stars 4 stars 5 stars
comments

Having A Blast Tab

Green Day -- Having A Blast -- Dookie

Tuning Guitar Down 1/2 a step

-------- =Palm Mute




Intro
|---------------------------------|
|---------------------------------|
|---------------------------------|
|-7-7-7-7-7-7-5-5-5-5-5-5---------|  
|-7-7-7-7-7-7-5-5-5-5-5-5-----3---|
|-5-5-5-5-5-5-3-3-3-3-3-3-3-3---1-|

verse
pm----------------------
|-----------------------|
|-----------------------|
|-----------------------|
|-7-7-7-7-7-7-7-7-7-7-7-|  
|-7-7-7-7-7-7-7-7-7-7-7-|
|-5-5-5-5-5-5-5-5-5-5-5-|

|-------------------------------------------------|
|-------------------------------------------------|
|-------------------------------------------------|
|-4-4-4-4-4-4-4-4-4-4-4-4-4-4-4-4-5-5-5-5-2-2-2-2-|  
|-4-4-4-4-4-4-4-4-4-4-4-4-4-4-4-4-5-5-5-5-2-2-2-2-|  
|-2-2-2-2-2-2-2-2-2-2-2-2-2-2-2-2-3-3-3-3-0-0-0-0-|

chorus

|-----------------------------------------------------------------|
|-----------------------------------------------------------------|
|-7-7-7-7-7-7-7-7-----------------4-4-4-4-4-4-4-4-----------------|
|-7-7-7-7-7-7-7-7-7-7-7-7-7-7-7-7-4-4-4-4-4-4-4-4-5-5-5-5-5-5-5-5-|
|-5-5-5-5-5-5-5-5-7-7-7-7-7-7-7-7-2-2-2-2-2-2-2-2-5-5-5-5-5-5-5-5-|
|-----------------5-5-5-5-5-5-5-5-----------------3-3-3-3-3-3-3-3-|

post chorus

|-------------------------|
|-------------------------|
|-------------------------|
|-7-7-7-7-7-7-5-5-5-5-5-5-|  
|-7-7-7-7-7-7-5-5-5-5-5-5-|
|-5-5-5-5-5-5-3-3-3-3-3-3-|

bridge 
[ Tab from: http://www.guitartabs.cc/tabs/g/green_day/having_a_blast_tab_ver_4.html ]
|----------------------------------------------------------------------|
|----------------------------------------------------------------------|
|-------------------4----------------------------------7-7-------------|
|-7----4-4-4-4-4-4--4----2-2-2-2-2-2--7----4-4-4-4-4-4-7-7-7-7-2-2-2-2-|
|-7----4-4-4-4-4-4--2----2-2-2-2-2-2--7----4-4-4-4-4-4-5-5-7-7-2-2-2-2-|
|-5----2-2-2-2-2-2-------0-0-0-0-0-0--5----2-2-2-2-2-2-----5-5-0-0-0-0-|

Bridge 2

|------------------------------------------------------------------|
|------------------------------------------------------------------|
|---------7-7-7-7--------------------------------------------------|
|-4-4-4-4-7-7-7-7-7-7-7-7-7-7-7-7--4-4-4-4-5-5-5-5-7-7-7-7-7-7-7-7-|
|-4-4-4-4-5-5-5-5-7-7-7-7-7-7-7-7--4-4-4-4-5-5-5-5-7-7-7-7-7-7-7-7-|
|-2-2-2-2---------5-5-5-5-5-5-5-5--2-2-2-2-3-3-3-3-5-5-5-5-5-5-5-5-|


Here Is The Order to the song:
Intro x4
Verse x2
Chorusx2
Post Chorus x4
Verse x2
Chorusx2
Post Chorus x4
Bridge x1
Bridge 2 x2
Post Chorus x4


The Lyrics Are Below
i'm taking all you down with me
explosives duct taped to my spine
nothing's gonna change my mind
i won't listen to anyone's last words
there's nothing left for you to say
soon you'll be dead anyway
no oneis getting out alive 
this time i've really lost my mind and i don't care
so close your eyes and kiss yourself goodbye
and think about the times you spent and what they've meant
to me it's nothing
i'm losing all my happiness
the happiness you pinned on me
lonliness still comforts me my anger dwells inside of me
i'm taking it all out on you and all the *** you put me through
do you ever think back to another time?
does it bring you so down that you thought you lost your mind?
do you ever want to lead a long trail of destruction
and mow down any bullshit that confronts you?
do you ever build up all the small things in your head
to make one problem that adds up to nothing

Thats It!!!!!
Comments