Green Day - Having A Blast Chords & Tabs

 

Having A Blast Chords & Tabs

Green Day Chords & Tabs

Version: 3 Type: Tab 0 ratings
1 star 2 stars 3 stars 4 stars 5 stars
comments

Having A Blast Tab

Green Day Having a Blast
From the album Dookie
Track: 2
Tabbed by Liam
Email: guitar_rocker_47@hotmail.com
Tuning half a step down

Intro
E|-------------------------------|------------------------------------------|
B|-2-2-2-2---0-------------------|-2-2-2-2---0------------------------------|
G|-2-2-2-2---0-------------------|-2-2-2-2---0------------------------------|
D|-2-2-2-2---0---5-5-5-----------|-2-2-2-2---0---5-5-5----------------------|
A|-0-0-0-0---0---5-5-5-------2---|-0-0-0-0---0---5-5-5-------2--------------|
E|-----------0---3-3-3---3-3---3-|-----------0---3-3-3---3-3---3------------|

Verse
E|----------------------------|-----------------------|---------------------|
B|----------------------------|-----------------------|---------------------|
G|-2--------------------------|-----------------------|-2-2-2-2-2-2-2-2-----|
D|-2--2-2-2-2-2-2-2-2-2-2-2-2-|-2-2-2-2-2-2-2-2-2-2-2-|-2-2-2-2-2-2-2-2-----|
A|-0--0-0-0-0-0-0-0-0-0-0-0-0-|-0-0-0-0-0-0-0-0-0-0-0-|-0-0-0-0-0-0-0-0-----|
E|----------------------------|-----------------------|---------------------|
PM    ***********************************************

E|-------------------------|-----------------|------------------------------|
B|-------------------------|-----------------|------------------------------|
G|-------------------------|-----------------|--1--1-1--1--1-1-1-1----------|
D|-4-4-4-4-4-4-4-4-4-4-4-4-|--5-5-5-5-5-5-5--|--2--2-2--2--2-2-2-2----------|
A|-4-4-4-4-4-4-4-4-4-4-4-4-|--5-5-5-5-5-5-5--|--2--2-2--2--2-2-2-2----------|
E|-2-2-2-2-2-2-2-2-2-2-2-2-|--3-3-3-3-3-3-3--|--0--0-0--0--0-0-0-0----------|

Chorus
E|--------------------------------------------------------------------------|
B|--------------------------2-2-2-2-2-2-2-2-2-2-2-2-------------------------|
G|-7-7-7-7-7-7-7-7-7-7-7-7--2-2-2-2-2-2-2-2-2-2-2-2-------------------------|
D|-7-7-7-7-7-7-7-7-7-7-7-7--2-2-2-2-2-2-2-2-2-2-2-2--9-9-9-9-9-9-9-9-9------|
A|-5-5-5-5-5-5-5-5-5-5-5-5--0-0-0-0-0-0-0-0-0-0-0-0--9-9-9-9-9-9-9-9-9------|
E|---------------------------------------------------7-7-7-7-7-7-7-7-7------|
[ Tab from: http://www.guitartabs.cc/tabs/g/green_day/having_a_blast_tab_ver_3.html ]
E|--------------------------------------------------------------------------|
B|--------------------------------------------------------------------------|
G|--------------------------------------------------------------------------|
D|-5-5-5-5-5-5-5-5-5--------------------------------------------------------|
A|-5-5-5-5-5-5-5-5-5--------------------------------------------------------|
E|-3-3-3-3-3-3-3-3-3--------------------------------------------------------|

Interlude (# = stop chord dead)
E|--------------------------------------------------------------------------|
B|--------------------------------------------------------------------------|
G|----------------4#----------------------------7-7-------------------------|
D|-7#--4-4-4-4-4--4#--2-2-2-2-2--7#--4-4-4-4-4--7-7--7-7-2------------------|
A|-7#--4-4-4-4-4--2#--2-2-2-2-2--7#--4-4-4-4-4--5-5--7-7-2------------------|
E|-5#--2-2-2-2-2------0-0-0-0-0--5#--2-2-2-2-2-------5-5-0------------------|

Interlude part 2
E|--------------------------------------------------------------------------|
B|--------------------------------------------------------------------------|
G|---------7-7-7-7----------------------------------------------------------|
D|-4-4-4-4-7-7-7-7-7-7-7-7-7-7-7-7-7-7--4-4-4-4--5-5-5-5--7-7-7--5/7--7-7-7-|
A|-4-4-4-4-5-5-5-5-7-7-7-7-7-7-7-7-7-7--4-4-4-4--5-5-5-5--7-7-7--5/7--7-7-7-|
E|-2-2-2-2---------5-5-5-5-5-5-5-5-5-5--2-2-2-2--3-3-3-3--5-5-5--3/5--5-5-5-|

E|--------------------------------------------------------------------------|
B|--------------------------------------------------------------------------|
G|----------7-7-7-7---------------------------------------------------------|
D|-4-4-4-4--7-7-7-7--7-7-7-7-7-7-7-7-7-7--4-4-4-4--5-5-5-5------------------|
A|-4-4-4-4--5-5-5-5--7-7-7-7-7-7-7-7-7-7--4-4-4-4--5-5-5-5------------------|
E|-2-2-2-2-----------5-5-5-5-5-5-5-5-5-5--2-2-2-2--3-3-3-3------------------|

Outro
E|-------------------------------|------------------------------------------|
B|-2-2-2-2---0-------------------|-2-2-2-2---0------------------------------|
G|-2-2-2-2---0-------------------|-2-2-2-2---0------------------------------|
D|-2-2-2-2---0---5-5-5-----------|-2-2-2-2---0---5-5-5----------------------|
A|-0-0-0-0---0---5-5-5-------2---|-0-0-0-0---0---5-5-5-------2--------------|
E|-----------0---3-3-3---3-3---3-|-----------0---3-3-3---3-3---3------------|

E|-------------------------------|------------------------------------------|
B|-2-2-2-2---0-------------------|-2-2-2-2---0------------------------------|
G|-2-2-2-2---0-------------------|-2-2-2-2---0------------------------------|
D|-2-2-2-2---0---5-5-5-----------|-2-2-2-2---0---5~~~~----------------------|
A|-0-0-0-0---0---5-5-5-------2---|-0-0-0-0---0---5~~~~----------------------|
E|-----------0---3-3-3---3-3---3-|-----------0---3~~~~----------------------|

Order

Intro x2
Verse x2
Chorus x2
Intro x2
Verse x2
Chorus
Intro
Interlude
Interlude part 2
Outro
Comments