Green Day - Having A Blast Chords & Tabs

 

Having A Blast Chords & Tabs

Green Day Chords & Tabs

Version: 1 Type: Bass Tab 0 ratings
1 star 2 stars 3 stars 4 stars 5 stars
comments

Having A Blast Bass Tab

Song: Having a Blast
Artist: Green Day
Album: Dookie


Intro					 X2
Gb-----------------|-----------------------
Db--7-7-5-5-4-4----|-----------------------
Ab--------------7--|--0-0-0-0-0------------
Eb-----------------|------------3-3-3-3-3--

Verse
Gb---------------------------------------------------------------------------
Db-----------------------------------------4-4-4-4-4--------------2-2-2-2-2--
Ab--0-0-0-0-0-0-0-0-0-0-0-0-0------------------------------------------------
Eb-----------------------------2-2-2-2-2-2------------3-3-3-3-3-3------------

Chorus
Gb--------------------------------------------2-2-2-----------------
Db------------------------7-----------------------------------------
Ab--5-5-5-5-5-5-5-----------------2-2-2-2-2-2--------2--------------
Eb----------------5-5-5-5---5-5-5----------------------3-3-3-3-3-3--

Bridge			 X3
Gb-------------------------|------------------------
Db----------------7-5-4h5--|------------------------
Ab--0-0-0-0-0--------------|--0-0-0-0-0-------------
Eb------------3-3----------|-------------3-3-3-3-3--
[ Tab from: http://www.guitartabs.cc/tabs/g/green_day/having_a_blast_btab.html ]
2nd Verse
Gb----------------------------------------------------------------
Db----------------------------------------------------------------
Ab--0----------------5----------------2----0-0-0-0-0---5-5-0-0-2--
Eb-------2-2-2-2-2--------0-0-0-0-0-------------------------------

Gb-----------------------------------------------------------------------------
Db-----------------------------------------------------------------------------
Ab------------5-5-5-5-5-0-0-0-0-0-0-0-0-0---------------------0-0-0-0-0-0-0-0--
Eb--2-2-2-2-2-----------------------------2-2-2-2-2-3-3-3-3-3------------------

Gb-------------------------------------------------------------
Db-------------------------------------------------------------
Ab------------5-5-5-5-5-0-0-0-0-0-0-0-0-0----------------------
Eb--2-2-2-2-2-----------------------------2-2-2-2-2-3-3-3-3-3--

Outro			 X3 (Let the last note ring...)
Gb-------------------------|----------------
Db----------------7-5-4h5--|----------------
Ab--0-0-0-0-0--------------|--0-0-0-0-0-----
Eb------------3-3----------|-------------3--


Intro X1
Verse X2
Chorus X2
Bridge X1
Verse X2
Chorus X2
Bridge X1
2nd Verse X1
Outro X1


This tab was created by Christian Mangs. Email me at:
Bassman9@users.basstabarchive.com

Comments