Green Day - Haushinka Chords & Tabs

 

Haushinka Chords & Tabs

Green Day Chords & Tabs

Version: 1 Type: Bass Tab 0 ratings
1 star 2 stars 3 stars 4 stars 5 stars
comments

Haushinka Bass Tab

Song: Haushinksa
Artist: Green Day
Album: Nimrod
Previous tab:Clista
Updated Tab: GM(graemejacksonmuir@hotmail.com)

BTA Member

None of the tabs for this song ever include the fills during the solo 
so i thought i would finally post a tab which does.

INTRO	

		Repeat as required
G|-----------|----------------------|
D|-----------|*----5h7p5-----5h7p5-*|
A|-3h5555555-|*-555------555-------*|
E|-----------|----------------------|

Pre Chorus

G|-----------|
D|-----------|
A|-3333------|
E|------3333-|
[ Tab from: http://www.guitartabs.cc/tabs/g/green_day/haushinka_btab.html ]
Chorus
				
G|------------------------|---------------------------------------|
D|*----------------------*|---------------------------------------|
A|*-5555-3333------------*|-5555-3333-----------------------------|
E|-----------3333-1111-3--|-----------3333-111-3-111-3-111-3-5555-|



Back to beginning and repeat all

Bridge          ___________________________________- 
		|1,2,3	  |1	   |2,3  |4 (waiting for you)
G|---------------------------------|-----|----------|
D|*-------------------------------*|-----|----------|
A|*---------------------------2-3-*|-----|----------|
E|-7777-0-5555-0-2H33-2H33-5-------|-333-|-33333333-|

Rhythm Solo

G|----------|
D|*--------*|
A|*--55----*|
E|-55--333--|

Lead Solo

G|-----------------------------------------|
D|---------------------------8-8-----------|
A|--------------7-5-444-------8-88---------|
E|-66666666-555---------6666-------55555555|


Outro
 |G|------------------|
 |D|------------------|
 |A|------------------|
 |E|-1-1-1-1-3-5~-----|
Comments